Song name
# A B C D E F G H I J K L M N O P Q R S T U V W X Y Z

Midevil - Sounds Of Infinity tab

Midevil- The sounds of Infinity

Tabbed by Nathan Gallagher

Midevil is an awsome metal band, hear some of their songs here:
http://www.latticesphere.com/bands/midevil/midevil.htm

Enjoi!

Intro-

6|----0------0-------0-------0-------0------0-----0------0-|---------|
5|------0------0-------0-------0-------0------0-----0----0-|---------|
4|--9------11------12------14------11------9------8------9-|----%----|
3|---------------------------------------------------------|-Repeat-2|
2|---------------------------------------------------------|--Times--|
1|---------------------------------------------------------|---------|


6|----0------0------0------0------0---|----------|----0------0----0-|
5|------0------0------0------0------0-|----------|------0------0--0-|
4|--10------9------7------9------10---|----%-----|--9------8------9-|
3|------------------------------------|-Repeat-2-|------------------|
2|------------------------------------|--Times---|------------------|
1|------------------------------------|---then---|------------------|

Pretty easy, hope you enjoy it!
Tap to rate this tab
# A B C D E F G H I J K L M N O P Q R S T U V W X Y Z