Song name
# A B C D E F G H I J K L M N O P Q R S T U V W X Y Z

Midlake - Roscoe tab

---------------------------------------------------------------------------
                             ROSCOE - Midlake
---------------------------------------------------------------------------
Tabbed by: ggbeers
E-mail: gtrain101@hotmail.com

Tuning:standard

Hey y'all, just been listening to this song and I think that this riff is more 
accurate - but let me know what you think


Main riffage all the way through:
e|------------------------------------------------------------------------|
B|--------4----------4---------4----------4-------------------------------|
G|----------6------6-------------6------6---------------------------------|
D|------------------------------------------------------------------------|
A|-----6--------6-----------6--------6------------------------------------|
E|---4--------4-----------4--------4--------------------------------------|


Then:


Thought            we were devoid..     a change or two around this place

e|---4---------------------2--------------------2------------4------------|
B|---4---------------------2--------------------2------------4------------|
G|---6---------------------4--------------------4------------6------------|
D|---4---------------------2--------------------2------------4------------|
A|---6---------------------4--------------------4------------6------------|
E|---4---------------------2--------------------0------------4------------|


Etc.


Thats all!

LOVE&PEACE


************************************

| /   slide up
| \   slide down
| h   hammer-on
| p   pull-off
| ~   vibrato
| +   harmonic
| x   Mute note
| b   Bend
| pb  Pre-bend
| br  Bend release
| pbr Pre-bend release
| brb Bend release bend

************************************
Tap to rate this tab
# A B C D E F G H I J K L M N O P Q R S T U V W X Y Z