Song name
# A B C D E F G H I J K L M N O P Q R S T U V W X Y Z

Midlake - Kingfish Pies tab

Help us improve GuitareTab! Take a short survey!
Artist: Midlike
Song: Kingfish Pies
Album: Bamnan and Silvercork

Tune down a 1/2 step

Intro: (Chords)
C / Caug

Intro:
E -12(sustain) -15-13-------12-------------------|
B --------------------13-12----13-----14-15------|
G -----------------------------------------------|
D -----------------------------------------------|
A -----------------------------------------------|
E -----------------------------------------------|

E -12h13h14h15--19--15--19-20--------------------|
B -------------------------------12-13----12-13--|
G -----------------------------------------------|
D -----------------------------------------------|
A -----------------------------------------------|
E -----------------------------------------------|

Verse: (Chords)
C / Caug

Article separation room, it's made without windows.

They say it's because someone might break in and take whatever they chose.
       (Fill 1)                                    (Fill 2)
Making Kingfish Pies takes much longer now without any windows,

out any windows, out any windows, out any windows.

(Fill 3)

Break:
(Fill 4)

(Riff) (Played throughout verse)
Article separation room, it's made without tables and chairs.

They say "it's because they don't fit in here. We don't need tables and chairs."
                                                   (Fill 2)
Making Kingfish Pies takes much longer now without any tables,

out any tables, out any tables, out any tables.

(Fill 5)

Break:
(Fill 4)

(Riff 1&2) (Played throughout verse)
Article separation room, it's made with lots of big machinery, but

sometimes they need us to work much faster. Much faster.

Then they turn up the machines and I just can't hold on. Once my hand got caught.
       (Fill 1)                                    (Fill 2)
Making Kingfish Pies takes much longer no with my only one hand,

my only one hand, my only one hand, my only one hand.

(Outro)

Fill 1:
E ---------------20----------------------20------|
B --------17h19------13-----------17h19------20--|
G -12h13-------------------12h13-----------------|
D -----------------------------------------------|
A -----------------------------------------------|
E -----------------------------------------------|


Fill 2:
E -----------------------------------------------|
B -----------------------------------------------|
G --12~(sustain) -- 13 ~(sustain) ---------------|
D -----------------------------------------------|
A -----------------------------------------------|
E -----------------------------------------------|

Fill 3:

E -----------------------------------------------|
B --12-13----15-17-15-17--12-13----15-17~--------|
G -----------------------------------------------|
D -----------------------------------------------|
A -----------------------------------------------|
E -----------------------------------------------|

Fill 4:

E -----------------------------------------------|
B -----------------------------------------------|
G --7-9-10--9-7--10-9-7--9-10-9-7--10-9-7--9-----|
D --------------------------------------------10-|
A -----------------------------------------------|
E -----------------------------------------------|

Fill 5 (not yet transcribed)

Riff 1:

E -----------------------------------------------|
B -------------5---------------------------------|
G ------5--------------5------9-7-4s5-4----------|
D --5s6----5s6----5s6-----5s6--------------------|
A -----------------------------------------------|
E -----------------------------------------------|

Riff 2 (not yet transcribed)

Outro:

E -----------------------------------------------|
B --13~------------------------------------------|
G -------16-14-12--------------------------------|
D ----------------14-----------------------------|
A -----------------------------------------------|
E -----------------------------------------------|

Note:
This is a pretty simplified version of a song with a lot of
unique, hard-to-duplicate sounds, crafted specially for my
limited talent and technique.
I was also stumped on the fill before the last verse and the
fuzz riff during the last verse. Maybe some day...

-Matt V. (thegaggingorder@yahoo.com)
Related for Kingfish Pies tab