Song name
# A B C D E F G H I J K L M N O P Q R S T U V W X Y Z

Midlake - Mornings Will Be Kind tab

Artist: Midlake
Song: Mornings Will Be Kind
Album: N/A

Chords:

A (577655) Dm (X57765)

Intro: (Sort of)

   A                          Dm
E -------------5------------5------------|
B -----5---5---5-5------5---5-6-------6--|
G -6---6---6-6---6-6----6-6---7-7-7---7--|
D -7-7-------7-----7------7-----7-7-7----|
A ---7------------------------------5----|
E ---------------------------------------|

E ---------------------------------------|
B ---6---------6-------------------------|
G ---7-7-----7-7-7-6---------------------|
D -7---7-7---7---7-7-7-------------------|
A -5-----5-----------7-------------------|
E ---------------------------------------|

Fill:
  A
E ---------------------------------------|
B ---------------------------------------|
G -9(sustain) 7-6(s)---------------------|
D ------------------9-7(s)-6-------6-7---|
A ---------------------------9-7-9-------|
E ---------------------------------------|
  Dm
E ---------------------------------------|
B ---------------------------------------|
G ---------------------------------------|
D ---------------------------------------|
A -9-10(s)-9-7(s)-5-3(s)-2-0-2(s)--------|
E ---------------------------------------|

Verse:

A
Mornings will be kind to you in the future.

Dm
Nevermind the smog that makes your head hurt.

A
Darling, you could have that great garden.

Dm
Darling, you could finish the things you've started.

Chorus:

A
I'll follow you around for hours.

            Dm                          A
I'll follow you around for hours in the sun.

(Fill)

Verse:

A
We could break in and take the star.

Dm
Put it between your arms and run.

A
Make it across the bride and then

Dm
never look back again.

Chorus:

A
I'll follow you around for hours.

Dm                                      A (Fill)
I'll follow you around for hours in the sun.

       Dm          A (Fill)    Dm          A (Fill)
In the sun, in the sun, in the sun, in the sun.


Outro:

Dm A Dm A Dm A


Note: The intro is kind of iffy, but you get the idea. That keyboard
sound is played through the song that seems to stick to the A/Dm
progression with little or no variations. I hope it works out for you.

-Matt (thegaggingorder@yahoo.com)
Tap to rate this tab
# A B C D E F G H I J K L M N O P Q R S T U V W X Y Z