Guitaretab - guitar tabs
Song name
# A B C D E F G H I J K L M N O P Q R S T U V W X Y Z

Midlake - Roller Skate Farewell June tab

Artist: Midlake
Song: Roller Skate (Farewell, June)
Album: Milkmaid Grand Army

Chords:

F (133211) G# (466544)
F#(244322) C# (9-11-11-10-9-9)

Riff:
E -------------------------------------|
B -------------------------------------|
G -13h14----------13h14----------------|
D ------13-15------------13-15---------|
A -------------------------------------|
E --------(13)-------------(13)--------|

Riff 2:
E -------------------------------------|
B -------------------------------------|
G --8s10-10-10---10-10-10--------------|
D -------------------------------------|
A -------------------------------------|
E -------------------------------------|

Riff 3:

E -----4--------4-------4-------4------|
B -----4--------4-------4-------4------|
G -------------------------------------|
D -6-X-----6-X------6-X-----6-X--------|
A -6-X-----6-X------6-X-----6-X--------|
E -4-X-----4-X------4-X-----4-X--------|

Riff 4:

   G#      F#      C#
E -------------------------------------|
B -9999999-7777777---------------------|
G -----------------10101010101010------|
D -------------------------------------|
A -------------------------------------|
E -------------------------------------|

E -------------------------------------|
B -------------------------------------|
G -10-10-10-10s8-8-8s6-6-6-------------|
D -------------------------------------|
A -------------------------------------|
E -------------------------------------|

Riff 5:

E -------------------------------------|
B -7s6---------------------------------|
G ----6b-------------------------------|
D ------6b-----------------------------|
A -------------------------------------|
E -------------------------------------|
[ Tab from: http://www.guitaretab.com/m/midlake/83609.html ]
Riff 6:
E -5---5---5---5---5---5---5---5-------|
B -6---6---6---6---6---6---6---6-------|
G -------------------------------------|
D -------------------------------------|
A -------------------------------------|
E -------------------------------------|

Verse 1:

F (Riff throughout)
Come around the corner looking at a fan to sift.

F
Take what you couldn't take here, make sure and make the monster vicks.

Bridge:

F (Riff 2 6 times)
Straight back, all appear.

F (Riff)
Don't ever c-come come undone,
don't want to say well it's done when I'm over.

G# (Riff 3)
Seen the corner play that colder for that style of higher collar, I know.

F (Riff)
Do the same thing over and over, hey do the same thing over and over.

Chorus: (Play with Riff 4)

G#  F#    C#
Farewell, June.

G#  F#    C#
Farewell, June.

Bridge 2:

G#
Rollerblades broke your daughter, three lanes coming to someone with me.

(Riff 5)

(Riff)

Verse 2:

F (Riff)
Silver, silver gentry make it up to where I live.

F (Riff)
Take, what's it gonna take him? Hey I'm 'bout to boil with him.

Bridge

Chorus

Bridge 2

Verse 2

F (Riff 2)
Straight back, all appear.

F (Riff 6)
Don't ever c-come come undone,
don't want to say well it's done when I'm over.

Chorus (3 times)


Note: Well, I don't think I've ever translated lyrics so horribly. The
only thing I'm confident he's saying is "monster vicks." It's definitely
"monster vicks" and "a fan to sift," as they are both very deep,
meaningful, and make a lot of sense. Thanks Midlake... thanks for
the pronunciation.

Also, there are a lot of riffs/fills sprinkled around but the
rhythms and timing in which they're played are pretty easy to
pick up. I hope it works out.

-Matt (thegaggingorder@yahoo.com)
Related for Roller Skate Farewell June tab
×
Roller Skate Farewell June