Guitaretab - guitar tabs
Song name
# A B C D E F G H I J K L M N O P Q R S T U V W X Y Z

Midnattsol - Tarefall tab

-------------------------------------------------------------------------------
			     TAREFALL - Midnattsol
-------------------------------------------------------------------------------
Album: Where Twilight Dwells (track 7)
Tabbed by: Rainbow Bassist


Tuning: Standard

Played on 2 Acoustic guitars, but this tab is just for the lead parts.  The chords for 
other guitar are pretty straightforward though.

Intro- Acoustic Guitar
e----------|--------|----------|-------------|--------|------|
B----------|--------|----------|-------------|--------|------|
G----------|--------|----------|-------------|--------|------|
D----------|--------|-0-0-1-0--|---------3-3h|5---3---|------|
A--3---5--3|-2---2--|---------2|-3-3-5-6-----|-------6|-5-3-2|
E----------|--------|----------|-------------|--------|------|

e-----------|--------||
B-----------|--------||
G-----------|-------:||  x4
D-----------|-------:||
A-3--3-5-3-2|-3------||
E-----------|-----3--||


Verse Riff x4
e------|---------|-------------|---------|--------|---------|-----|
B---3-4|3h4p3----|-------------|---------|--------|---------|-----|
G-5----|------3-3|2-3-2h3p2-2--|---------|--------|---------|-----|
D------|---------|------------3|5--------|--------|---------|-----|
A------|---------|-------------|----3-3-5|5h6--5-3|5-3h5p3-1|1h3--|
E------|---------|-------------|--3------|--------|---------|-----|
**Strum up Fm Chord
After 4th time play
e------|--------|---------|---|-|-----|-------|-----|------------|
B------|--------|---------|---|-|-----|-------|-----|------------|
G------|--------|---------|-**|-|-----|-------|-----|-----**-----|
D------|--------|---------|---|-|-----|-------|3----|------------|
A-3-3-5|5h6--5-3|5-3h5p3-1|1h3|-|--3-5|5h6-5-3|--6-5|1h3-3~------|
E------|--------|---------|---|-|3----|-------|-----|------------|

Chorus Riff x3
e--------|------|-----------|--|-----|-----|-----------|----------|
B--------|------|-----------|--|-----|-----|-----------|----------|
G--------|------|-----------|--|-----|-----|-----------|----------|
D-----3/5|-3----|-----------|--|--3/5|3----|-----------|----------|
A-1/3----|---6-5|1h3-3-5-3-1|3-|3----|--6-5|3/5-5-5h6p5|5-5-6-5---|
E--------|------|-----------|-3|-----|-----|-----------|--------6-|
[ Tab from: http://www.guitaretab.com/m/midnattsol/189500.html ]
e--------|-----|-----------|--|-----|----|-----------|------------|
B--------|-----|-----------|--|-----|----|-----------|------------|
G--------|-----|-----------|--|-----|----|-----------|------------|
D-----3/5|3----|-----------|--|--3/5|3---|-----------|------------|
A-1/3----|--6-5|1h3-3-5-3-1|3-|3----|-6-5|3/5-5-5h6p5|1/3-3-5-3-1-|
E--------|-----|-----------|-3|-----|----|-----------|------------|

Play Chords:

| Cm | Cm | Cm | Cm | Bb | Bb | Fm | Fm |

| Cm | Cm | Cm | Cm | Bb | Bb | Fm | Fm |

| Cm | Cm | Cm | Cm | Bb | Bb | Fm | Fm |

| Cm | Cm | Cm | Cm | Bb | Bb | Fm | Fm |


Bridge Riff x4
e-----|----|---|-----------|-----------|------|------|-----------|
B-----|6/8-|---|6/8--6-8-9|9-8-6-8-6--|------|------|-----------|
G--5--|----|5--|-----------|----------8|5--55-|---5-8|7h8p7------|
D----5|----|--5|-----------|-----------|-----5|6-----|------8----|
A-----|----|---|-----------|-----------|------|------|-----------|
E-----|----|---|-----------|-----------|------|------|-----------|


Chorus Riff x2
e--------|------|-----------|--|-----|-----|-----------|----------|
B--------|------|-----------|--|-----|-----|-----------|----------|
G--------|------|-----------|--|-----|-----|-----------|----------|
D-----3/5|-3----|-----------|--|--3/5|3----|-----------|----------|
A-1/3----|---6-5|1h3-3-5-3-1|3-|3----|--6-5|3/5-5-5h6p5|5-5-6-5---|
E--------|------|-----------|-3|-----|-----|-----------|--------6-|

e--------|-----|-----------|--|-----|----|-----------|------------|
B--------|-----|-----------|--|-----|----|-----------|------------|
G--------|-----|-----------|--|-----|----|-----------|------------|
D-----3/5|3----|-----------|--|--3/5|3---|-----------|------------|
A-1/3----|--6-5|1h3-3-5-3-1|3-|3----|-6-5|3/5-5-5h6p5|1/3-3-5-3-1-|
E--------|-----|-----------|-3|-----|----|-----------|------------|

| Cm | Cm | Cm | Cm | Bb | Bb | Fm | Fm |

| Cm | Cm | Cm | Cm | Bb | Bb | Fm | Fm |

| Cm | Cm | Cm | Cm | Bb | Bb | Fm | Fm |

| Cm | Cm | Cm | Cm | Bb | Bb | Fm | Fm |


Bridge Riff x3
e-----|----|---|-----------|-----------|------|------|-----------|
B-----|6/8-|---|6/8--6-8-9|9-8-6-8-6/4|------|------|-----------|
G--5--|----|5--|-----------|-----------|5--55-|---5-8|7h8p7------|
D----5|----|--5|-----------|-----------|-----5|6-----|------8----|
A-----|----|---|-----------|-----------|------|------|-----------|
E-----|----|---|-----------|-----------|------|------|-----------|

e-----|----|---|----------|-----------|------|------|-------|-----|
B-----|6/8-|---|6/8--6-8-9|9-8-6-8-6/4|------|------|-------|-----|
G--5--|----|5--|----------|-----------|5--55-|---5-8|7h8p7--|-----|
D----5|----|--5|----------|-----------|-----5|6-----|------8|8/10-|
A-----|----|---|----------|-----------|------|------|-------|-----|
E-----|----|---|----------|-----------|------|------|-------|-----|


| /  slide up
| \  slide down
| h  hammer-on
| p  pull-off
| ~  vibrato
| +  harmonic
| x  Mute note
===============================================================================