Midnight Crisus - Highway Trial tab

MIDNIGHT CRISUS
song: highway trial
tuning: E,A,D,G,B,E
-------------------------------------------------------------|
---1---1---1---1---0---0---0---0---1---1---1---1---0---0---0-|
--2-2-2-2-2-2-2-2-2-2-2-2-2-2-2-2-2-2-2-2-2-2-2-2-2-2-2-2-2--| let last note
-2---2---2---2---2---2---2---2---2---2---2---2---2---2---2---|     ring
-------------------------------------------------------------|
-------------------------------------------------------------|

----------------------------------------------------|
----------------------------------------------------|
----------------------------------------------------| play this twice
-2-2-2-2-2-0-5-5-5-5-5-5-2-2-2-2-2-0-7-7-7-5-5-5-5--|
-0-0-0-0-0-0-3-3-3-3-3-3-0-0-0-0-0-0-5-5-5-3-3-3-3--|
----------------------------------------------------|

----------------------------------------------------|
----------------------------------------------------|
----------------------------------------------------| play this twice
-2--2-0-2--2-0--7-7-7-5-5-5-5-0---------------------|
-0--0-0-0--0-0--5-5-5-3-3-3-3-0---------------------|
----------------------------------------------------|

-------------------------------------------------------------|
---1---1---1---1---0---0---0---0---1---1---1---1---0---0---0-|
--2-2-2-2-2-2-2-2-2-2-2-2-2-2-2-2-2-2-2-2-2-2-2-2-2-2-2-2-2--| let last note
-2---2---2---2---2---2---2---2---2---2---2---2---2---2---2---|     ring
-------------------------------------------------------------|
-------------------------------------------------------------|

----------------------------------------------------|
----------------------------------------------------|
----------------------------------------------------| play this twice
-2-2-2-2-2-0-5-5-5-5-5-5-2-2-2-2-2-0-7-7-7-5-5-5-5--|
-0-0-0-0-0-0-3-3-3-3-3-3-0-0-0-0-0-0-5-5-5-3-3-3-3--|
----------------------------------------------------|

----------------------------------------------------|
----------------------------------------------------|
----------------------------------------------------| play this twice
-2--2-0-2--2-0--7-7-7-5-5-5-5-0---------------------|
-0--0-0-0--0-0--5-5-5-3-3-3-3-0---------------------|
----------------------------------------------------|

-----------------------------------------------------------------|
---1---1---1---1---0---0---0---0---1---1---1---1---0---0---0---0-|
--2-2-2-2-2-2-2-2-2-2-2-2-2-2-2-2-2-2-2-2-2-2-2-2-2-2-2-2-2-2-2--| play this
-2---2---2---2---2---2---2---2---2---2---2---2---2---2---2---2---|   twice
-----------------------------------------------------------------|
-----------------------------------------------------------------|

----------------------------------------------------|
----------------------------------------------------|
----------------------------------------------------| play this twice
-2-2-2-2-2-0-5-5-5-5-5-5-2-2-2-2-2-0-7-7-7-5-5-5-5--|
-0-0-0-0-0-0-3-3-3-3-3-3-0-0-0-0-0-0-5-5-5-3-3-3-3--|
----------------------------------------------------|

----------------------------------------------------|
----------------------------------------------------|
----------------------------------------------------|
-2--2-0-2--2-0--7-7-7-5-5-5-5-0----2----------------|
-0--0-0-0--0-0--5-5-5-3-3-3-3-0----0----------------|
----------------------------------------------------|
Tap to rate this tab
 
# A B C D E F G H I J K L M N O P Q R S T U V W X Y Z