Song name
# A B C D E F G H I J K L M N O P Q R S T U V W X Y Z

Midnight Oil - Blue Sky Mining tab

--------------------------------------------------------------------
			   Blue Sky Mining - Midnight Oil Solo
--------------------------------------------------------------------

Solo:


E-------------------|-----------------------|-------------------|
B-------------------|-----------------------|-----1--1--1---5---|
G--0---0-0-0-0---2--|-------0--0-0-0-0---2--|-----0--2--2-------|
D--2---2-0-2-0---2--|-------2--2-0-2-0---2--|---3---------------|
A----------------0--|----3---------------0--|-------------------|
E-------------------|-----------------------|-------------------|


E-------------------|-----------------------|
B-------------------|-----------------------|
G-------------------|---2--0----------------|
D--------0----------|----------2---0--------|
A--2--3------0------|--------------------3--|
E-------------------|-----------------------|



Tap to rate this tab
 
# A B C D E F G H I J K L M N O P Q R S T U V W X Y Z