Song name
# A B C D E F G H I J K L M N O P Q R S T U V W X Y Z

Midnight Oil - Us Forces tab

SONG NAME - U.S forces
-------------------------------------------------------------------------------
Tabbed by:D@ M@xwell pro
Email:

Tuning:EBGDAE
Intro:x4

           [C]                        [D]                     [G]
e|---0--0--0--0--0--0-------------2--2--2--2--2--2------------3---------------------------|
B|---1--1--1--1--1--1-------------3--3--3--3--3--3------------3---------------------------|
G|---0--0--0--0--0--0-------------2--2--2--2--2--2------------0---------------------------|
D|---2--2--2--2--2--2-------------0--0--0--0--0--0------------0---------------------------|
A|---3--3--3--3--3--3-------------0--0--0--0--0--0------------2---------------------------|
E|---0--0--0--0--0--0-------------0--0--0--0--0--0------------3---------------------------|

Verse:x8

      [A]       [Asus2]        [Bm7]     [power tab]
e|---0--0--0----0--0--0--0----0--0--0----0--0--0--0----------------------------------------|
B|---2--2--2----0--0--0--0----0--0--0----0--0--0--0----------------------------------------|
G|---2--2--2----2--2--2--2----2--2--2----4--4--4--4----------------------------------------|
D|---2--2--2----2--2--2--2----0--0--0----4--4--4--4----------------------------------------|
A|---0--0--0----0--0--0--0----2--2--2----2--2--2--2----------------------------------------|
E|---0--0--0----0--0--0--0----0--0--0----0--0--0--0----------------------------------------|

Chorus:x1


    [A]   [Am7]  [C]    [B7]  [Em11]
e|---0-----0------0------0-----2---------------------------------------------------------------|
B|---2-----1------1------0-----3---------12--14--16--17--14---12--14--16--17--14---12--14--16--|
G|---2-----0------0------2-----2---------------------------------------------------------------|
D|---2-----2------2------1-----2---------------------------------------------------------------|
A|---0-----0------3------2-----2---------------------------------------------------------------|
E|---0-----0------0------0-----0---------------------------------------------------------------|
Tap to rate this tab
# A B C D E F G H I J K L M N O P Q R S T U V W X Y Z