Song name
# A B C D E F G H I J K L M N O P Q R S T U V W X Y Z

Midnight Oil - Powderworks tab

POWDERWORKS

Hirst/Moginie/Rotsey/James
Album : Midnight Oil
Bass : Andrew James

INTRO:
G |-----------------------------------|
D |*---------------------------------*|
A |*-3---3---1-0---1---0---3---1-0---*| x8
E |--------------1-------1---------1--|

G |---------------------------------|---------------------------------|
D |---------------------------------|---------------------------------|
A |---------------------------------|---------------------------------|
E |-0-0-0-0-0-0-0-0-0-0-0-0-0-0-0-0-|-4-4-4-4-4-4-4-4-4-4-4-4-4-0-3-4-|

VERSE:
A shit storm a coming.............And I feel it coming soon
G |----------------------------------|---------------------------------|
D |*---------------------------------|-5-------------------------------|
A |*-------------------3-3-3-3-3-5---|-----------------------8---8-7---|
E |--5-------------------------------|---------------------------------|

G |---------------------------------|---------------------------------|
D |---------------------------------|---------------------------------|
A |-------------------3-3-3-3-3-5---|-----------------------8---8-7---|
E |-5-------------------------------|-3-------------------------------|

G |---------------------------------|---------------------------------|
D |---------------------------------|-5-------------------------------|
A |-------------------3-3-3-3-3-5---|-----------------------8---8-7---|
E |-5-------------------------------|---------------------------------|

....................................[ Play 1st time ]
G |---------------------------------|----------------------------------|
D |---------------------------------|---------------------------------*|
A |-------------------3-3-3-3-3-5---|-----------------3-3-1-3---1-3-1-*|
E |-5-------------------------------|-3-3---3-3-3----------------------|

[ Play 2nd time ]
G |---------------------------------|
D |---------------------------------|
A |---------------------------------|
E |-3-3---3-3-3---3-3-3-3-3-3-------|

CHORUS:
I don't need no fire or brimstone warning
G |---------------------------------|---------------------------------|
D |---------------------------------|---------------------------------|
A |-2-2-2-2-2-2-2---3-3-3-3-3-3-3---|-6-6-6-6-6-6-6---7-7-7-7-7-7-7---|
E |---------------------------------|---------------------------------|

G |---------------------------------|---------------------------------|
D |---------------------------------|---------------------------------|
A |-8-8-8-8-8-8---------------------|-----------------------------1---|
E |-----------------1-1-1-1-1-1-1---|-2-2-2-2-2-2-2---3-3-3-5---3-----|

G |---------------------------------|---------------------------------|
D |---------------------------------|---------------------------------|
A |-2-2-2-2-2-2-2---3-3-3-3-3-3-3---|-6-6-6-6-6-6-6---7-7-7-7-7-7-7---|
E |---------------------------------|---------------------------------|

....................................[ Play for 1st Chorus ]
G |---------------------------------|---------------------------------|
D |---------------------------------|---------------------------------|
A |-8-8-8-8-8-8---------------------|---------------------------------|
E |-----------------1-1-1-1-1-1-1---|-2-2-2-2-2-2-2---3-3---3-3-3---3-|

G |-----------------|
D |-----------------|
A |-----------------|
E |-3-3---3-3-3-----|

..[ Play for 2nd Chorus ]
G |---------------------------------|----------------|
D |---------------------------------|----------------|
A |---------------------------------|----------------|
E |-2-2-2-2-2-2-2---3-3-3-3-3-3-3-3-|-3--------------|

INTERLUDE/GUITAR SOLO:
G |-----------------------------------|...|---------------------------------|
D |*---------------------------------*|...|---------------------5---7-7-9---|
A |*-7---------5---7---------------55*|x13|-7---------5---7-------7---------|
E |--------7-8------------------------|...|-------7-8-----------------------|

G |-----------------------------------|...|---------------------------------|
D |*---------------------------------*|...|---------------------------------|
A |*-7---7-----5---7---------------5-*|x3.|-7-7-757-7-757-7-7-7-7-7-------5-|
E |--------7-8---------2-3---5-7-8----|...|---------------------------7-8---|

G |-----------------------------------|...|---------------------------------|
D |*---------------------------------*|...|-------5---5-------5---5-7-7-9-9-|
A |*-7---7-----5---7---------------5-*|x3.|-7-7-7-------7-7-7---------------|
E |--------7-8---------2-3---5-7-8----|...|---------------------------------|

G |---------------------------------|---------------------------------|
D |---------------------------------|---------------------------------|
A |-7---7-----5---7---------------5-|-7-7-7-6-6-6-5-5-5-4---4-3---2---|
E |-------7-8---------2-3---5-7-8---|---------------------------------|

G |---------------------------------|---------------------------------|
D |---------------------------------|---------------------------------|
A |-1-1-1-1-1-1-1-1-1-1-1-1-1-1-1-1-|-1-1-1-1-1-1-1-1-1-1-1-1-1-1-1-1-|
E |---------------------------------|---------------------------------|

G |---------------------------------|---------------------------------|
D |---------------------------------|---------------------------------|
A |-1-1-1-1-1-1-1-1-1-1-1-1-1-1-1-1-|-1-1-1-1-1-1-1-1-1-1-1-1-1-1-1-1-|
E |---------------------------------|---------------------------------|

INTRO:
G |-----------------------------------|
D |*---------------------------------*|
A |*-3---3---1-0---1---0---3---1-0---*| x4
E |--------------1-------1---------1--|

G |---------------------------------|---------------------------------|
D |---------------------------------|---------------------------------|
A |---------------------------------|---------------------------------|
E |-0-0-0-0-0-0-0-0-0-0-0-0-0-0-0-0-|-4-4-4-4-4-4-4-4-4-4-4-4-4-0-3-4-|

VERSE

END CHORUS:
I don't need no fire or brimstone warning
G |---------------------------------|---------------------------------|
D |---------------------------------|---------------------------------|
A |-2-2-2-2-2-2-2---3-3-3-3-3-3-3---|-6-6-6-6-6-6-6---7-7-7-7-7-7-7---|
E |---------------------------------|---------------------------------|

G |---------------------------------|---------------------------------|
D |---------------------------------|---------------------------------|
A |-8-8-8-8-8-8---------------------|-----------------------------1---|
E |-----------------1-1-1-1-1-1-1---|-2-2-2-2-2-2-2---3-3-3-5---3-----|

G |---------------------------------|---------------------------------|
D |---------------------------------|---------------------------------|
A |-2-2-2-2-2-2-2---3-3-3-3-3-3-3---|-6-6-6-6-6-6-6---7-7-7-7-7-7-7---|
E |---------------------------------|---------------------------------|

G |---------------------------------|---------------------------------|
D |---------------------------------|---------------------------------|
A |-8-8-8-8-8-8---------------------|---------------------------------|
E |-----------------1-1-1-1-1-1-1---|-2-2-2-2-2-2-2---3-3---3-3-3-----|

G |-----------------|
D |-------------0-0-|
A |-0-0-2-2-3-3-----|
E |-----------------|

OUTRO:
G |---------------------------------|--------------------------------|
D |-2-----2/3-----3/7-----7\5-------|-2-----2/3-----3/7-----7/5------|
A |---------------------------------|--------------------------------|
E |---------------------------------|--------------------------------|

G |---------------------------------|----|
D |-7-----7/9-----9/10----10/12-----|-14-|
A |---------------------------------|----|
E |---------------------------------|----|

Transcribed by Brian Camp
E-mail: cambrian@vianet.net.au
Tap to rate this tab
 
# A B C D E F G H I J K L M N O P Q R S T U V W X Y Z