Song name
# A B C D E F G H I J K L M N O P Q R S T U V W X Y Z

Midnight Oil - Armistice Day tab

Intro:
e|-1----3----5--------3----5----7----------------0--0--0--0-----|
B|-3----5----6--------5----6----8-------3h-5--5-----3--1--0-----|
G|--------------------------------------------------------------|
D|------------------------------------------------------------2-|
A|--------------------------------------------------------------|
E|--------------------------------------------------------------|

e|-----------------------------------------------------0--------|
B|---------------------------------------------------3---3------|
G|-------------------------------------------------2-------2----|
D|-0--2--2--0------------------------------------3-----------3--|
A|-------------3--2--0-----0-0--2--0-0--3--2--0-----------------|
E|----------------------4---------------------------------------|
Tap to rate this tab
# A B C D E F G H I J K L M N O P Q R S T U V W X Y Z