Song name
# A B C D E F G H I J K L M N O P Q R S T U V W X Y Z

Midnight Oil - The Forgotten Years tab

This is such a cool song. I'll tab the chords soon.

Intro

e-----------------|-----------------|-----------------|------0----------|
B-------3---------|-------3---------|------3----------|-------------2---|
G-------------2---|--4----------2---|-------------2---|-----------------|
D-----------------|-----------------|-----------------|-----------------|
A--0--------------|-----------------|-----------------|--0--------------|
E-----------------|-----------------|--3--------------|-----------------|

e-----------------|-----------------|-----------------|------0----------|
B--3----3---------|-------3---------|-------3---------|-------------2---|
G-------------2---|--4----------2---|-------------2---|-----------------|
D-----------------|-----------------|-----------------|-----------------|
A-----------------|-----------------|--0--------------|--0--------------|
E-----------------|-----------------|-----------------|-----------------|
Tap to rate this tab
# A B C D E F G H I J K L M N O P Q R S T U V W X Y Z