Song name
# A B C D E F G H I J K L M N O P Q R S T U V W X Y Z

Midnight Riders - One Bad Man tab

Possibly one of the easiest songs ever. Timing's probably a little off, I focused 
more on notes than I did exact timing, you can figure it out.

http://www.midnight-riders.com/

  Q=145
 4/4
  Gtr I
  ~~                             ~~                             ~
|---------------|--------------|------------------|-----------------|
|---------------|--------------|------------------|-----------------|
|-2p===0---0----|------------0-|-2p=0---0---------|-----------------|
|--------2---2--|-0-----0--2---|------2---2p0h2p0-|---0-------------|
|---------------|----2---------|------------------|-2---2p0h2p0-----|
|---------------|--------------|------------------|-------------3---|


  PM----|         PM----|         PM----|
|---------------|---------------|--------------|--------------|
|---------------|---------------|--------------|--------------|
|------------2--|---------2-----|------------2-|-2--2-----2---|
|-2-2-2-2-0--2--|-2-2-2-2-2--0--|-2-2-2-2-0--2-|-2--2--0--2---|
|-2-2-2-2-2--0--|-2-2-2-2-0--2--|-2-2-2-2-2--0-|-0--0--2--0---|
|-0-0-0-0-3-----|-0-0-0-0----3--|-0-0-0-0-3----|-------3------|


  PM----|         PM----|         PM----|
|---------------|---------------|---------------|-------------|
|---------------|---------------|---------------|-------------|
|------------2--|---------2-----|------------2--|-2--2-----2--|
|-2-2-2-2-0--2--|-2-2-2-2-2--0--|-2-2-2-2-0--2--|-2--2--0--2--|
|-2-2-2-2-2--0--|-2-2-2-2-0--2--|-2-2-2-2-2--0--|-0--0--2--0--|
|-0-0-0-0-3-----|-0-0-0-0----3--|-0-0-0-0-3-----|-------3-----|


    PM-----------------------------------------------------------|
||------------------|-----------------|-----------------|--------------|
||o-----------------|-----------------|-----------------|--------------|
||------------------|-----------------|-----------------|------------2-|
||--2-2-2-2-2-2-2-2-|-2-2-2-2-2-2-2-2-|-2-2-2-2-2-2-2-2-|-2-2-2--2-2-2-|
||o-2-2-2-2-2-2-2-2-|-2-2-2-2-2-2-2-2-|-2-2-2-2-2-2-2-2-|-2-2-2--2-3-0-|
||--0-0-0-0-0-0-0-0-|-0-0-0-0-0-0-0-0-|-0-0-0-0-0-0-0-0-|-0-0-0--0-0---|

  PM----------------------------------------------------------|
|-----------------|-----------------|-----------------|---------------|
|-----------------|-----------------|-----------------|---------------|
|-----------------|-----------------|-----------------|---------2-----|
|-2-2-2-2-2-2-2-2-|-2-2-2-2-2-2-2-2-|-2-2-2-2-2-2-2-2-|-2-2-2-2-2--0--|
|-2-2-2-2-2-2-2-2-|-2-2-2-2-2-2-2-2-|-2-2-2-2-2-2-2-2-|-2-2-2-2-0--2--|
|-0-0-0-0-0-0-0-0-|-0-0-0-0-0-0-0-0-|-0-0-0-0-0-0-0-0-|-0-0-0-0----3--|


  PM----------------------------------------------------------|
|-----------------|-----------------|-----------------|---------------|
|-----------------|-----------------|-----------------|---------------|
|-----------------|-----------------|-----------------|------------2--|
|-2-2-2-2-2-2-2-2-|-2-2-2-2-2-2-2-2-|-2-2-2-2-2-2-2-2-|-2-2-2-2-2--2--|
|-2-2-2-2-2-2-2-2-|-2-2-2-2-2-2-2-2-|-2-2-2-2-2-2-2-2-|-2-2-2-2-3--0--|
|-0-0-0-0-0-0-0-0-|-0-0-0-0-0-0-0-0-|-0-0-0-0-0-0-0-0-|-0-0-0-0-0-----|


  PM------------------------------------------------|
|-----------------|-----------------|-----------------|-------------|
|-----------------|-----------------|-----------------|-------------|
|-----------------|-----------------|-----------------|-2--2-----2--|
|-2-2-2-2-2-2-2-2-|-2-2-2-2-2-2-2-2-|-2-2-2-2-2-2-2-2-|-2--2--0--2--|
|-2-2-2-2-2-2-2-2-|-2-2-2-2-2-2-2-2-|-2-2-2-2-2-2-2-2-|-0--0--2--0--|
|-0-0-0-0-0-0-0-0-|-0-0-0-0-0-0-0-0-|-0-0-0-0-0-0-0-0-|-------3-----|


|-------------|-------------|-------------|-------------|
|-------------|-------------|-------------|-------------|
|-2--2--------|-2--2--------|-2--2--------|-2--2--------|
|-2--2--2--0--|-2--2--2--0--|-2--2--2--0--|-2--2--2--0--|
|-0--0--2--2--|-0--0--2--2--|-0--0--2--2--|-0--0--2--2--|
|-------0--3--|-------0--3--|-------0--3--|-------0--3--|


  PM----|         PM----|         PM----|
|---------------|---------------|---------------|-------------|
|---------------|---------------|---------------|-------------|
|------------2--|---------2-----|------------2--|-2--2-----2--|
|-2-2-2-2-0--2--|-2-2-2-2-2--0--|-2-2-2-2-0--2--|-2--2--0--2--|
|-2-2-2-2-2--0--|-2-2-2-2-0--2--|-2-2-2-2-2--0--|-0--0--2--0--|
|-0-0-0-0-3-----|-0-0-0-0----3--|-0-0-0-0-3-----|-------3-----|


  PM----|         PM----|         PM----|
                                                               3x
|---------------|---------------|---------------|--------------||
|---------------|---------------|---------------|-------------o||
|------------2--|---------2-----|------------2--|-2--2-----2---||
|-2-2-2-2-0--2--|-2-2-2-2-2--0--|-2-2-2-2-0--2--|-2--2--0--2---||
|-2-2-2-2-2--0--|-2-2-2-2-0--2--|-2-2-2-2-2--0--|-0--0--2--0--o||
|-0-0-0-0-3-----|-0-0-0-0----3--|-0-0-0-0-3-----|-------3------||


|-------------|-------------|-------------|-------------|
|-------------|-------------|-------------|-------------|
|-2--2--------|-2--2--------|-2--2--------|-2--2--------|
|-2--2--2--0--|-2--2--2--0--|-2--2--2--0--|-2--2--2--0--|
|-0--0--2--2--|-0--0--2--2--|-0--0--2--2--|-0--0--2--2--|
|-------0--3--|-------0--3--|-------0--3--|-------0--3--|


  PM----|         PM----|         PM----|
|---------------|---------------|---------------|-------------|
|---------------|---------------|---------------|-------------|
|------------2--|---------2-----|------------2--|-2--2-----2--|
|-2-2-2-2-0--2--|-2-2-2-2-2--0--|-2-2-2-2-0--2--|-2--2--0--2--|
|-2-2-2-2-2--0--|-2-2-2-2-0--2--|-2-2-2-2-2--0--|-0--0--2--0--|
|-0-0-0-0-3-----|-0-0-0-0----3--|-0-0-0-0-3-----|-------3-----|


  PM----|         PM----|         PM----|
|---------------|---------------|---------------|-------------|---*|
|---------------|---------------|---------------|-------------|---*|
|------------2--|---------2-----|------------2--|-2--2-----2--|---*|
|-2-2-2-2-0--2--|-2-2-2-2-2--0--|-2-2-2-2-0--2--|-2--2--0--2--|-2-*|
|-2-2-2-2-2--0--|-2-2-2-2-0--2--|-2-2-2-2-2--0--|-0--0--2--0--|-2-*|
|-0-0-0-0-3-----|-0-0-0-0----3--|-0-0-0-0-3-----|-------3-----|-0-*|


Have fun with that.
Tap to rate this tab
 
# A B C D E F G H I J K L M N O P Q R S T U V W X Y Z