Midnight Riders - Midnight Ride tab

-------------------------------------------------------------------------------
			     MIDNIGHT RIDE - Midnight Riders
-------------------------------------------------------------------------------
Tabbed By: NoSc0p3
E-mail: chasavalos@live.com

Tuning: Standard

**Note: This is my first tab so don't be too harsh. ^^ This is about 99% correct, but it 
have the same 'bluesy' vibe

without the second guitar (which I don't have tabbed... yet). This song takes some mild 
work, because of the swift

moving power chords. For those of you familiar with Left 4 Dead 2, I've also included 
tank theme solo that plays from

time to time.**

Main Riff A:

e|-----------------------------------|
B|-----------------------------------|
G|-----------------------------------|
D|-2---2-----2---5~--2-5-2-5/7-5-2-5-|
A|-0---0---5-0---3~--0-3-0-3/5-3-0-3-|
E|---------3-------------------------|


Main Riff B:

e|-----------------------------------|
B|-----------------------------------|
G|---------------------------7---7---|
D|-2---2-----2---5~--2-5-2-5/7---7---|
A|-0---0---0-0---3~--0-3-0-3/5---5---|
E|---------3-------------------------|


Verse Riff A:

e|-----------------------------|
B|-----------------------------|
G|-----------------------------|
D|-----------------------------|
A|-0-0---0---0-3-0---0---0---0-|
E|-----3-----------3-------3---|

Verse Riff B:

e|-------------------------|
B|-------------------------|
G|-------------------------|
D|-------------------------|
A|-------0-3-0~------0-3-0-|
E|-3-3-3-----------3-------|


Verse Riff C:

e|---------------------------|
B|---------------------------|
G|---------------------------|
D|---------------------------|
A|-3/5-5-3-0---0~------0-3-0-|
E|-----------3------3--------|


Pre-Chorus A:

e|---------------|
B|---------------|
G|---------------|
D|---0-0-5-------|
A|-3/5-5-3-0-0-0-|
E|-----------3---|


Pre-Chorus B:

e|-----------------------------------|
B|-----------------------------------|
G|-----------------------------------|
D|-----------------------------------|
A|---3-3-3-3-3-3-3-3/5-5-5-5-5-5-5-5-|
E|-3/1-1-1-1-1-1-1-1/3-3-3-3-3-3-3-3-|


(Solo / Tank Theme):

e|-------8--------------8--------------9--------------8------|
B|-8/10~---10-8----8/10~---10-8----9/11~--11-9---8/10~--10-8-|
G|-----------------------------------------------------------|
D|-----------------------------------------------------------|
A|-----------------------------------------------------------|
E|-----------------------------------------------------------|

e|----------------------------------------------------------|
B|-9/11~---9~-----------------------9/11~--9~---------------|
G|-------------12-10-12-9~--10~12~-------------12-10-12-9~~-|
D|----------------------------------------------------------|
A|----------------------------------------------------------|
E|----------------------------------------------------------|

X=============================================================================X

Song Order:

-Intro-
Main Riff A
Main Riff B
Main Riff A
Main Riff B

-Verse-
Verse Riff A
Verse Riff B
Verse Riff A
Verse Riff C
Verse Riff A
Verse Riff B
Verse Riff A
Verse Riff C

-Pre-Chorus-
Pre-Chorus A
Pre-Chorus B
Verse Riff A
Verse Riff A
Pre-Chorus B

-Chorus-
Main Riff A
Main Riff B
Main Riff A
Main Riff B

************************************

| /   slide up
| \   slide down
| h   hammer-on
| p   pull-off
| ~   vibrato
| +   harmonic
| x   Mute note
| b   Bend
| pb  Pre-bend
| br  Bend release
| pbr Pre-bend release
| brb Bend release bend

************************************
Tap to rate this tab
 
# A B C D E F G H I J K L M N O P Q R S T U V W X Y Z