Midnight Riders - One Bad Man tab

Tempo = 145


M - palm mute
L - tied note (hold the note)


E |----------------------------------------------------|
B |----------------------------------------------------|
G |--2L-------------0----------------------------------|
D |--------------------2--5--------2-----------0-------|
A |----------------------------------------------------|
E |----------------------------------------------------|


----------------------------|
----------------------------|
--------------------0L------|
-----------0-----2----------|
-----2----------------------|
----------------------------|

8th note feels tarting from here.

----------------------------------------------------|
----------------------------------------------------|
--2L-------------0----------------------------------|
--------------------2h-5h-------2h----0-------------|
--------------------------------------------2h------|
----------------------------------------------------|


----------------------------|----------------------------|
----------------------------|----------------------------|
----------------------------|--------------------2-------|
-----2h-0-------------------|--2M-2M-2M-2M-5-----2-------|
--5--------2h-5h-2--0-------|--2M-2M-2M-2M-5-----0-------|
-----------------------3----|--0M-0M-0M-0M-3-------------|


----------------------------|----------------------------|----------------|
----------------------------|----------------------------|----------------|
--------------2-------------|--------------------2-------|--2--2-----2----|
--2M-2M-2M-2M-2-----5-------|--2M-2M-2M-2M-5-----2-------|--2--2--5--2----|
--2M-2M-2M-2M-0-----5-------|--2M-2M-2M-2M-5-----0-------|--0--0--5--0----|
--0M-0M-0M-0M-------3-------|--0M-0M-0M-0M-3-------------|--------3-------|


----------------------------|----------------------------|
----------------------------|----------------------------|
--------------------2-------|--------------2-------------|
--2M-2M-2M-2M-5-----2-------|--2M-2M-2M-2M-2-----5-------|
--2M-2M-2M-2M-5-----0-------|--2M-2M-2M-2M-0-----5-------|
--0M-0M-0M-0M-3-------------|--0M-0M-0M-0M-------3-------|


----------------------------|----------------||---------------------------|
----------------------------|----------------||---------------------------|
--------------------2-------|--2--2-----2----||o--------------------------|
--2M-2M-2M-2M-5-----2-------|--2--2--5--2----||o2M-2M-2M-2M-2M-2M-2M-2M---|
--2M-2M-2M-2M-5-----0-------|--0--0--5--0----||-2M-2M-2M-2M-2M-2M-2M-2M---|
--0M-0M-0M-0M-3-------------|--------3-------||-0M-0M-0M-0M-0M-0M-0M-0M---|


----------------------------|----------------------------|
----------------------------|----------------------------|
----------------------------|----------------------------|
--2M-2M-2M-2M-2M-2M-2M-2M---|--2M-2M-2M-2M-2M-2M-2M-2M---|
--2M-2M-2M-2M-2M-2M-2M-2M---|--2M-2M-2M-2M-2M-2M-2M-2M---|
--0M-0M-0M-0M-0M-0M-0M-0M---|--0M-0M-0M-0M-0M-0M-0M-0M---|


----------------------------|----------------------------|
----------------------------|----------------------------|
--------------------2-------|----------------------------|
--2M-2M-2M-2M-5-----2-------|--2M-2M-2M-2M-2M-2M-2M-2M---|
--2M-2M-2M-2M-5-----0-------|--2M-2M-2M-2M-2M-2M-2M-2M---|
--0M-0M-0M-0M-3-------------|--0M-0M-0M-0M-0M-0M-0M-0M---|


----------------------------|----------------------------|
----------------------------|----------------------------|
----------------------------|----------------------------|
--2M-2M-2M-2M-2M-2M-2M-2M---|--2M-2M-2M-2M-2M-2M-2M-2M---|
--2M-2M-2M-2M-2M-2M-2M-2M---|--2M-2M-2M-2M-2M-2M-2M-2M---|
--0M-0M-0M-0M-0M-0M-0M-0M---|--0M-0M-0M-0M-0M-0M-0M-0M---|


----------------------------|----------------------------|
----------------------------|----------------------------|
--------------2-------------|----------------------------|
--2M-2M-2M-2M-2-----5-------|--2M-2M-2M-2M-2M-2M-2M-2M---|
--2M-2M-2M-2M-0-----5-------|--2M-2M-2M-2M-2M-2M-2M-2M---|
--0M-0M-0M-0M-------3-------|--0M-0M-0M-0M-0M-0M-0M-0M---|


----------------------------|----------------------------|
----------------------------|----------------------------|
----------------------------|----------------------------|
--2M-2M-2M-2M-2M-2M-2M-2M---|--2M-2M-2M-2M-2M-2M-2M-2M---|
--2M-2M-2M-2M-2M-2M-2M-2M---|--2M-2M-2M-2M-2M-2M-2M-2M---|
--0M-0M-0M-0M-0M-0M-0M-0M---|--0M-0M-0M-0M-0M-0M-0M-0M---|


----------------------------|----------------------------|
----------------------------|----------------------------|
--------------------2-------|----------------------------|
--2M-2M-2M-2M-5-----2-------|--2M-2M-2M-2M-2M-2M-2M-2M---|
--2M-2M-2M-2M-5-----0-------|--2M-2M-2M-2M-2M-2M-2M-2M---|
--0M-0M-0M-0M-3-------------|--0M-0M-0M-0M-0M-0M-0M-0M---|


----------------------------|----------------------------|----------------|
----------------------------|----------------------------|----------------|
----------------------------|----------------------------|--2--2-----2----|
--2M-2M-2M-2M-2M-2M-2M-2M---|--2M-2M-2M-2M-2M-2M-2M-2M---|--2--2--5--2----|
--2M-2M-2M-2M-2M-2M-2M-2M---|--2M-2M-2M-2M-2M-2M-2M-2M---|--0--0--5--0----|
--0M-0M-0M-0M-0M-0M-0M-0M---|--0M-0M-0M-0M-0M-0M-0M-0M---|--------3-------|


----------------|----------------|----------------|----------------|
----------------|----------------|----------------|----------------|
--2--2----------|--2--2----------|--2--2----------|--2--2----------|
--2--2--2--5----|--2--2--2--5----|--2--2--2--5----|--2--2--2--5----|
--0--0--2--5----|--0--0--2--5----|--0--0--2--5----|--0--0--2--5----|
--------0--3----|--------0--3----|--------0--3----|--------0--3----|


----------------------------|----------------------------|
----------------------------|----------------------------|
--------------------2-------|--------------2-------------|
--2M-2M-2M-2M-5-----2-------|--2M-2M-2M-2M-2-----5-------|
--2M-2M-2M-2M-5-----0-------|--2M-2M-2M-2M-0-----5-------|
--0M-0M-0M-0M-3-------------|--0M-0M-0M-0M-------3-------|


----------------------------|----------------|----------------------------|
----------------------------|----------------|----------------------------|
--------------------2-------|--2--2-----2----|--------------------2-------|
--2M-2M-2M-2M-5-----2-------|--2--2--5--2----|--2M-2M-2M-2M-5-----2-------|
--2M-2M-2M-2M-5-----0-------|--0--0--5--0----|--2M-2M-2M-2M-5-----0-------|
--0M-0M-0M-0M-3-------------|--------3-------|--0M-0M-0M-0M-3-------------|


----------------------------|----------------------------|---------------||
----------------------------|----------------------------|---------------||
--------------2-------------|--------------------2-------|--2--2-----2--o||
--2M-2M-2M-2M-2-----5-------|--2M-2M-2M-2M-5-----2-------|--2--2--5--2--o||
--2M-2M-2M-2M-0-----5-------|--2M-2M-2M-2M-5-----0-------|--0--0--5--0---||
--0M-0M-0M-0M-------3-------|--0M-0M-0M-0M-3-------------|--------3------||


----------------|---------------||----------------|----------------|
----------------|---------------||----------------|----------------|
--2--2-----2----|--2--2-----2--o||--2--2-----2----|--2--2----------|
--2--2--5--2----|--2--2--5--2--o||--2--2--5--2----|--2--2--2--5----|
--0--0--5--0----|--0--0--5--0---||--0--0--5--0----|--0--0--2--5----|
--------3-------|--------3------||--------3-------|--------0--3----|


----------------|----------------|----------------|----------------------------|
----------------|----------------|----------------|----------------------------|
--2--2----------|--2--2----------|--2--2----------|--------------------2-------|
--2--2--2--5----|--2--2--2--5----|--2--2--2--5----|--2M-2M-2M-2M-5-----2-------|
--0--0--2--5----|--0--0--2--5----|--0--0--2--5----|--2M-2M-2M-2M-5-----0-------|
--------0--3----|--------0--3----|--------0--3----|--0M-0M-0M-0M-3-------------|


----------------------------|----------------------------|----------------|
----------------------------|----------------------------|----------------|
--------------2-------------|--------------------2-------|--2--2-----2----|
--2M-2M-2M-2M-2-----5-------|--2M-2M-2M-2M-5-----2-------|--2--2--5--2----|
--2M-2M-2M-2M-0-----5-------|--2M-2M-2M-2M-5-----0-------|--0--0--5--0----|
--0M-0M-0M-0M-------3-------|--0M-0M-0M-0M-3-------------|--------3-------|


----------------------------|----------------------------|
----------------------------|----------------------------|
--------------------2-------|--------------2-------------|
--2M-2M-2M-2M-5-----2-------|--2M-2M-2M-2M-2-----5-------|
--2M-2M-2M-2M-5-----0-------|--2M-2M-2M-2M-0-----5-------|
--0M-0M-0M-0M-3-------------|--0M-0M-0M-0M-------3-------|


----------------------------|----------------|----------------||
----------------------------|----------------|----------------||
--------------------2-------|--2--2-----2----|----------------||
--2M-2M-2M-2M-5-----2-------|--2--2--5--2----|--2-------------||
--2M-2M-2M-2M-5-----0-------|--0--0--5--0----|--2-------------||
--0M-0M-0M-0M-3-------------|--------3-------|--0-------------||

Tap to rate this tab
 
# A B C D E F G H I J K L M N O P Q R S T U V W X Y Z