Song name
# A B C D E F G H I J K L M N O P Q R S T U V W X Y Z

Midnight Society - Beauty tab

Author/Artist: The Midnight Society
Title: Beauty
Transcribed by: Christopher?

Just Remember Kids, Beauty Is On The Inside 

------------------------------------------------------------------------------
------------------------------------------------------------------------------
------------------------------------------------------------------------------
-7----------------------------------------------------------------------------
-5-7-9-5----------------------------------------------------------------------
---5-7-3----------------------------------------------------------------------
 Intro:Part1:Distortion:Hold Each Note                                        

------------------------------------------------------------------------------
------------------------------------------------------------------------------
------------------------7-----------------------------------------------------
-7----------------------7-----------------------------------------------------
-5-7-9-5555555555555555-5-----------------------------------------------------
---5-7-3333333333333333-------------------------------------------------------
 Part2:<------PM------>Distortion                                             

-10101010-5555-7777-3333------------------------------------------------------
-10101010-5555-7777-3333------------------------------------------------------
-11111111-6666-9999-5555------------------------------------------------------
------------------------------------------------------------------------------
------------------------------------------------------------------------------
------------------------------------------------------------------------------
 Part3:Play 2x:Clean                                                          

-10101010-5555-7777-3333------------------------------------------------------
-10101010-5555-7777-3333------------------------------------------------------
-11111111-6666-9999-5555------------------------------------------------------
------------------------------------------------------------------------------
------------------------------------------------------------------------------
------------------------------------------------------------------------------
 Verse:Clean                                                                  

------------------------------------------------------------------------------
------------------------------------------------------------------------------
------------------------------------------------------------------------------
-77777---------------7--------------------------------------------------------
-55555-777-555555555-7--------------------------------------------------------
-------555-333333333-5--------------------------------------------------------
 Chourus:Distortion:Play 4x
Tap to rate this tab
# A B C D E F G H I J K L M N O P Q R S T U V W X Y Z