Song name
# A B C D E F G H I J K L M N O P Q R S T U V W X Y Z

Midnight Society - New Day tab

Help us improve GuitareTab! Take a short survey!
Author/Artist: The Midnight Society
Title: New Day
Transcribed by: Christopher?
This is the whole song.
Love: Barry, Joanie, Shin, Chris, Nicole, David, Julie, & Brian

------------------------------------------------------------------------------
------------------------------------------------------------------------------
------------------------------------------------------------------------------
-------55555-66666------------------------------------------------------------
-33333-33333-44444-66666------------------------------------------------------
-11111-------------44444------------------------------------------------------
 Intro:Distortion                                                             

-11111-88888-9-9-9--44444-----------------------------------------------------
-11111-88888-9-9-9--44444-----------------------------------------------------
-22222-99999-101010-55555-----------------------------------------------------
------------------------------------------------------------------------------
------------------------------------------------------------------------------
------------------------------------------------------------------------------
 Verse:Clean                                                                  

------------------------------------------------------------------------------
------------------------------------------------------------------------------
------------------------------------------------------------------------------
----55-66---------------------------------------------------------------------
-33-33-44-66-55---------------------------------------------------------------
-11-------44-33---------------------------------------------------------------
 Chourus:Distortion
Related for New Day tab