Song name
# A B C D E F G H I J K L M N O P Q R S T U V W X Y Z

Midnight Syndicate - Noctem Aeternus tab

This song is made for the piano but is transcribed for the guitar.
These are the only 3 chords in the song, which are Cm, F, and G
Its pretty straight forward



|-3-----8------------|
|-4---8---8-9-6-8-4--|
|-5------------------|
|-5------------------|
|-3-----------------3|
|--------------------|

|-1---------4--------|
|-1-------6---6------|
|-2------------------|
|-3------------------|
|-3------------------|
|-1---1--------------|

|-3---------7--------|
|-3-------8---8------|
|-4------------------|
|-5------------------|
|-5------------------|
|-3---3--------------|
Tap to rate this tab
# A B C D E F G H I J K L M N O P Q R S T U V W X Y Z