Song name
# A B C D E F G H I J K L M N O P Q R S T U V W X Y Z

Midnight Youth - Cavalry chords

-------------------------------------------------------------------------------
			     CAVALRY - MIDNIGHT YOUTH
-------------------------------------------------------------------------------

Tabbed by: Jack Mahony
Email: jackthemuss@gmail.com

Worked out the song by listening to it - a very good way to improve your guitar. 
Thought I'd submit a tab for the website that has helped me out a lot.

Let me know if you like it.

Tuning: standard


Background noise...

      A#m     G#
e|-----6------4-------|   
B|-----6------4-------|
G|-----6------5-------|    These chords can be heard playing very quitely 
D|-----8------6-------|                 before the intro
A|-----8------6-------|
E|-----6------4-------|

Intro


e|------------------------------|
B|------------------------------|
G|----------------------8-------|    Distorted powerchords
D|---8-----11-----4-----8-------|     
A|---8-----11-----4-----6-------|
E|---6-----9------2-------------|


Verse

                 A#m7                 D#7
e|-------------------------------------6--------------------|
B|--------9-----------9--------9-------8--------------------|
G|-------------------------------------6-----8b10r8---------|  Repeat then,
D|-----8--------8-----------8----------8--------------------|
A|-------------------------------------6--------------------|
E|--6--------6-----6-----6----------------------------------|


Lead

e|-----------------------------------------|
B|-9b10r9----------------------------------|
G|---------8b9r8---6------x--6b------------|  This is played at end of verses
D|--------------------6---x------8--8------|
A|-----------------------------------------|
E|-----------------------------------------|


Chorus

e|------------------------------|
B|------------------------------|
G|----------------------8-------|    Distorted powerchords
D|---8-----11-----4-----8-------|     
A|---8-----11-----4-----6-------|
E|---6-----9------2-------------|


Bridge

    A#7   D#7  F#
e|---6-----6-----9----------------|
B|---6-----8-----11---------------|
G|---7-----6-----11---------------|   Play lead over this if you want
D|---6-----8-----11---------------|
A|---8-----6-----9----------------|
E|---6----------------------------|



| /  slide up
| \  slide down
| h  hammer-on
| p  pull-off

| b  bend
| ~  vibrato
| +  harmonic
| x  Mute note
===============================================================================
Tap to rate this tab
 
# A B C D E F G H I J K L M N O P Q R S T U V W X Y Z