Song name
# A B C D E F G H I J K L M N O P Q R S T U V W X Y Z

Midnight Youth - The Letter tab

==The Letter - Midnight Youth==

Hey, I wrote this by ear and I love this song so I hope you enjoy this...it's the solo
at 1min 50sec. This solo is played on electric guitar. There is a filter that creates the
fx in the song but I manage to get a similar fx just by using the reverb and phaser and 
a bit of distortion. Have fun with this :)

e|----------------------------------------------------------|
B|-------6--11--9--------------------------11--9------------|
G|---6-----------------10--8--6-------6---------------------|
D|---------------------------------8------------------------|
A|----------------------------------------------------------|
E|----------------------------------------------------------|


e|-----------------------------------------------------------|
B|-----------------------------------11--9-------------------|
G|---10---8---5---6-----10--------6--------------------------|
D|-----------------------------8--------------8h10p8----6----|
A|-----------------------------------------------------------|
E|-----------------------------------------------------------|

e|-----------------------------------------------------------|
B|-----------------------------------------------------------|
G|---5h6---5h6---0--------6---10---8-------6--10--87~-------|
D|---------------------8----------------8--------------------|
A|-----------------------------------------------------------|
E|-----------------------------------------------------------|
Tap to rate this tab
 
# A B C D E F G H I J K L M N O P Q R S T U V W X Y Z