Song name
# A B C D E F G H I J K L M N O P Q R S T U V W X Y Z

Midnight Youth - Golden Love tab

Golden Love - Midnight Youth

No one had the tab for this and someone had to try it haha
i learnt by ear and its not 100% perfect but i did what i could
please email me for corrections or upload them yourself :D

Capo 4


E-----0--------|-----0--------|-----0-------0-|---------------|
B-----1--1---1-|-----1--1---1-|-----1--1----1-|-1---1---1---1-|
G-----0----0---|-----0----0---|-----0----0----|---0-----------|
D---2----------|---0----------|---2-----------|---------------|
A-3------------|-2------------|-0-------------|-------0---2---|
E--------------|--------------|---------------|---------------|

E-----0--------|-----0--------|---------------|---------------|
B-----1--1---1-|-----1--1---1-|---------------|---------------|
G-----0----0---|-----0----0---|---------------|---------------|
D---2----------|---0----------|---------------|---------------|
A-3------------|-2------------|-0-------------|-------0---2---|
E--------------|--------------|---------------|---------------|

E-----0--------|-----0--------|-----0-------0-|---------------|
B-----1--1---1-|-----1--1---1-|-----1--1----1-|-1---1---1---1-|
G-----0----0---|-----0----0---|-----0----0----|---0-----------|
D---2----------|---0----------|---2-----------|---------------|
A-3------------|-2------------|-0-------------|-------0---2---|
E--------------|--------------|---------------|---------------|

E-----0--------|-----0--------|-----0-------0-|---------------|
B-----1--1---1-|-----1--1---1-|-----1--1----1-|-1---1---1---1-|
G-----0----0---|-----0----0---|-----0----0----|---0-----------|
D---2----------|---0----------|---2-----------|---------------|
A-3------------|-2------------|-0-------------|-------0---2---|
E--------------|--------------|---------------|---------------|

E-----0--------|-----0--------|-----0---------|-----0---------|
B-----1--1---1-|-----1--1---1-|-----1--1---1--|-----1--1---1--|
G-----0----0---|-----0----0---|-----0----0----|---0------0----|
D---2----------|---0----------|---2-----------|---------------|
A-3------------|-2------------|-0-------------|---------------|
E--------------|--------------|---------------|-3-------------|

E-----0--------|-----0--------|-----0-------0-|-----0---------|
B-----1--1---1-|-----1--1---1-|-----1--1----1-|-1---1---------|
G---0------0---|---0------0---|-----0----0----|---0-----------|
D--------------|--------------|---2-----------|---------------|
A--------------|--------------|-3-------------|---------------|
E-1------------|-3------------|---------------|---------------|

E-----3--------|-----3--------|-----3-------3-|---------------|
B-----1--1---1-|-----1--1---1-|-----1--1----1-|-1---1---1---1-|
G-----0----0---|-----0----0---|-----0----0----|---0-----------|
D---2----------|---0----------|---2-----------|---------------|
A-3------------|-2------------|-0-------------|-------0---2---|
E--------------|--------------|---------------|---------------|

Thats as far as i got through the song.. The bit i ended with doesnt sound quite right.. 
I don't know how to do the rest either haha.
This is my second Tab EVER so be nice haha
and PLEASE PLEASE PLEASE someone help finish the song
Tap to rate this tab
 
# A B C D E F G H I J K L M N O P Q R S T U V W X Y Z