Song name
# A B C D E F G H I J K L M N O P Q R S T U V W X Y Z

Midnight Youth - Golden Love tab

=======================Golden Love=======================
----------------------Midnight Youth---------------------

This song is so beautiful and it's by my favourite band! I couldn't 
find any tabs I was happy with, so I thought i'd write my own. I've 
done this by ear though it should be close to 100% correct. Capo on
4. Standard tuning.

INTRO
e|----------------|--|-----------||-------------------|--|
B|-------0--------|--|-----------||--------0----------|--|
G|---------1---1--|x3|-1---1-----||------------1---1--|x2|
D|----2------2----|--|---2-------||----2---------2----|--|
A|--2-------------|--|------2-2--||--2---2------------|--|
E|----------------|--|-------2-2-||-------------------|--|

VERSE 1 (Play tab 2 times)
e|-----|------------------|--|---------|--------|--------|
B|-----|-------0----------|--|---------|--------|--------|
G|-----|---------1-----1--|x3|-1-----1-|--------|--------|
D|-----|----2-------2-----|--|----2----|--------|--------|
A|-2-2-|-2----------------|--|---------|---2--2-|--------|
E|-----|------------------|--|---------|-2--2---|--------|

e|---------------------|--|----------|-------------------|
B|--------0------------|--|----------|-------------------|
G|------------1-----1--|x3|--1-----1-|-------------------|
D|----2-----------2----|--|-----2----|-------------------|
A|--2------------------|--|----------|-------------------|
E|---------------------|--|----------|-------------------|

e|-----|--------------|--|---------------------------|--|------|
B|-----|-----0--------|--|-----0------------0--------|--|------|
G|-----|--------1---1-|x3|--------1---1--------1---1-|x2|-1---1|
D|-----|---2------2---|--|---2------2-----2------2---|--|---2--|
A|-----|-2------------|--|--------------2------------|--|------|
E|-2-2-|--------------|--|-2-------------------------|--|------|

CHORUS
e|-------------------------------------------|--|------------|
B|------0-------------------------0----------|--|------------|
G|---------1---1----------------------1---1--|x8|-1-----1----|
D|----2------2-------2-------2----------2----|--|----2-------|
A|-2----------------------2----2-------------|--|------------|
E|-------------------------------------------|--|------------|

VERSE 2 (Play tab 2 times)
e|-----|------------------|--|---------|--------|------------|
B|-----|-------0----------|--|---------|--------|------------|
G|-----|---------1-----1--|x3|-1-----1-|--------|------------|
D|-----|----2-------2-----|--|----2----|--------|------------|
A|-2-2-|-2----------------|--|---------|---2--2-|------------|
E|-----|------------------|--|---------|-2--2---|------------|

e|---------------------|--|----------------------------------|
B|--------0------------|--|----------------------------------|
G|------------1-----1--|x3|--1-----1-------------------------|
D|----2-----------2----|--|-----2----------------------------|
A|--2------------------|--|----------------------------------|
E|---------------------|--|----------------------------------|

e|-----|--------------|--|---------------------------|--|------|
B|-----|-----0--------|--|-----0------------0--------|--|------|
G|-----|--------1---1-|x3|--------1---1--------1---1-|x2|-1---1|
D|-----|---2------2---|--|---2------2-----2------2---|--|---2--|
A|-----|-2------------|--|--------------2------------|--|------|
E|-2-2-|--------------|--|-2-------------------------|--|------|

CHORUS
e|-------------------------------------------|--|-------------|
B|------0-------------------------0----------|--|-------------|
G|---------1---1----------------------1---1--|x8|-1-----1-----|
D|----2------2-------2-------2----------2----|--|----2--------|
A|-2----------------------2----2-------------|--|-------------|
E|-------------------------------------------|--|-------------|

BRIDGE
e|--------------------------------------------------------|--|
B|----------0-------------------------0-------------------|--|
G|-------------1-------1----------------------1------1----|x7|
D|-----2-----------2---------------2--------------2-------|--|
A|-2--------------------------2--------2------------------|--|
E|--------------------------------------------------------|--|

CHORUS
e|-------------------------------------------------------|---|
B|----------0-------------------------0------------------|---|
G|-------------1-------1----------------------1------1---|x11|
D|-----2-----------2---------------2--------------2------|---|
A|-2--------------------------2--------2-----------------|---|
E|-------------------------------------------------------|---|

For any suggestions or comments tweet to me - @LoyalTerrorArmy
Go New Zealand Music!!!
Tap to rate this tab
 
# A B C D E F G H I J K L M N O P Q R S T U V W X Y Z