Song name
# A B C D E F G H I J K L M N O P Q R S T U V W X Y Z

Midnite - Banking In The Pig tab

----------------------------------------------------------------------------
			     Banking in the Pig - Midnite
----------------------------------------------------------------------------
Tabbed by: Alberto Lovell	
Email: alberto.lovell@gmail.com

Tuning:Standard(EADGBe)

e|-8~-5~-----5-----------/5-5-8-5---13^(/15)-13-(10)-----13-(10)-----------|
B|-------6-8---6-----6^-----------8--------------15-(10)-----15------------|
G|---------------7-7---------------------------------14--------------------|
D|-------------------------------------------------------------------------|
A|-------------------------------------------------------------------------|
E|-------------------------------------------------------------------------|

e|----------------------10-8---------10-8----------------------------------|
B|-13----15----13^(/15)------10-8-10------10-8-10------8-------------------|
G|----14----14------------------------------------10-7---10-7-10^----------|
D|-------------------------------------------------------------------------|
A|-------------------------------------------------------------------------|
E|-------------------------------------------------------------------------|

e|-------------------------------------------------------------------------|
B|-------------------------------------------------------------------------|
G|-10-7--------------------------------------------------------------------|
D|------10-7-----------------------7---------------7-9-10-9-7-9-10---------|
A|-----------10-8----10-8~---8-10---8-------8^-----------------------------|
E|----------------10------10----------10-10-----10-------------------------|

e|---------------------------------------5-------10--------------------10--|
B|---------------10^(release)-10-9-8-6-8---6-----10--13-10----10-------10--|
G|-7-10-10-7-10------------------------------7-7-10--------12----10----10--|
D|------------------------------------------------------------------12-----|
A|-------------------------------------------------------------------------|
E|-------------------------------------------------------------------------|

e|-13-12-10----13-10---------------------------5-5---5-4-2-0---------------|
B|----------10-------13-10----10---------------7-x---7-6-3-2---------------|
G|-------------------------12----10-------10^--7-x---7-6-4-2---------------|
D|----------------------------------12-12------7-x---7-6-4-2---------------|
A|---------------------------------------------5-x---5-4-2-0---------------|
E|---------------------------------------------x-x---x-x-x-x---------------|

The rest of the song is Bm/D/A.

| /  slide up
| \  slide down
| h  hammer-on
| p  pull-off
| ~  vibrato
| +  harmonic
| x  Mute note
  ^  Bend
===========================================================================
Tap to rate this tab
 
# A B C D E F G H I J K L M N O P Q R S T U V W X Y Z