Song name
# A B C D E F G H I J K L M N O P Q R S T U V W X Y Z

Midtown - Knew It All Along tab

*Intro*


Guitar 1:
       A              
e|--12--12----|
B|----10--10--|
G|------------|  repeat this 4x
D|------------|
A|------------|
E|------------|
                   

       B            repeat as needed
e|--12--12--12--12--------------------|-----10--10------|
B|----10--10--10--10--14--10--14--10--|-------10--10----|
G|------------------------------------|-----------------|
D|------------------------------------|-----------------|
A|------------------------------------|-----------------|
E|------------------------------------|-----------------|
                                             or
                                     |------------------|
                                     |--15--10--15--10--|
                                     |------------------|
                                     |------------------|
                                     |------------------|
                                     |------------------|


          ^^^^^^^^^^^^^^^^^^^^^^^^^^^^^^^^
Guitar 2: comes in on beginning of B above.

e|---------------------------------|
B|---------------------------------|
G|--2-2-2-2---4-4---6-6-6-6---7-7--|
D|--2-2-2-2---4-4---6-6-6-6---7-7--|
A|--0-0-0-0---2-2---4-4-4-4---5-5--|
E|---------------------------------|
    v v v ^   v v   v v v ^   v v
Tap to rate this tab
 
# A B C D E F G H I J K L M N O P Q R S T U V W X Y Z