Song name
# A B C D E F G H I J K L M N O P Q R S T U V W X Y Z

Midtown - Give It Up tab

This is my first tab!
I think it's pretty good but here you can't find the outro riff 'cause I'm not
good enough to  tab it out. :)
However, I'd be glad to receive comments, suggestions and corrections.

INTRO

Guitar 1
e|----------------------------------------------------------------------------|
B|----------------------------------------------------------------------------|
G|-7--------------------------------------------------------------------------|
D|-7-x48----------------------------------------------------------------------|
A|-5--------------------------------------------------------------------------|
E|----------------------------------------------------------------------------|


VERSE 1

Guitar 1
e|----------------------------------------------------------------------------|
B|----------------------------------------------------------------------------|
G|-7------11------7------11---------------------------------------------------|
D|-7-x16--11-x16--7-x16--11-x16-----------------------------------------------|
A|-5-------9------5-------9---------------------------------------------------|
E|----------------------------------------------------------------------------|

Guitar 2
e|----------------------------------------------------------------------------|
B|----------------------------------------------------------------------------|
G|----------------------------------------------------------------------------|
D|-8------4------8------4-----------------------------------------------------|
A|-8-x16--4-x16--8-x16--4-x16-------------------------------------------------|
E|-6------2------6------2-----------------------------------------------------|


PRE-CHORUS

Guitar 1&2
e|----------------------------------------------------------------------------|
B|----------------------------------------------------------------------------|
G|----------------------------------------------------------------------------|
D|-8------4------8------4-----------------------------------------------------|
A|-8-x16--4-x16--8-x16--4-x16-------------------------------------------------|
E|-6------2------6------2-----------------------------------------------------|


CHORUS

Guitar 1&2
e|---------------------------------------------------------------------------------|
B|---------------------------------------------------------------------------------|
G|---------------------------------------------------------------------------------|
D|-8\6/8--8\6\4--4-----3-----6-----8-----------------------------------------------|  x2
A|-8\6/8--8\6\4--4-x8--3-x8--6-x2--8-x2--------------------------------------------|
E|-6\4/6--6\4\2--2-----1-----4-----6-----------------------------------------------|


INTRO

Guitar 1
e|----------------------------------------------------------------------------|
B|----------------------------------------------------------------------------|
G|-7--------------------------------------------------------------------------|
D|-7-x12----------------------------------------------------------------------|
A|-5--------------------------------------------------------------------------|
E|----------------------------------------------------------------------------|


VERSE 2

Guitar 1
e|-----------------------------------------------------------------------------|
B|-----------------------------------------------------------------------------|
G|-7-----11-----9h7-9h7--7-----11----------------------------------------------|
D|-7-x4--11-x2-----------7-x4--11-x6-------------------------------------------|
A|-5------9--------------5------9----------------------------------------------|
E|-----------------------------------------------------------------------------|

Guitar 2 (Stopped)
e|----------------------------------------------------------------------------|
B|----------------------------------------------------------------------------|
G|----------------------------------------------------------------------------|
D|-8------4------8------4-----------------------------------------------------|
A|-8-x16--4-x16--8-x16--4-x16-------------------------------------------------|
E|-6------2------6------2-----------------------------------------------------|


PRE-CHORUS

CHORUS x2
Then
e|-----------------------------------------------------------------------------|
B|-----------------------------------------------------------------------------|
G|-----------------------------------------------------------------------------|
D|-8------6--------------------------------------------------------------------|
A|-8-x16--6-x16----------------------------------------------------------------|
E|-6------4--------------------------------------------------------------------|


BRIDGE

Guitar 1  (Stopped)
e|-----------------------------------------------------------------------------|
B|-----------------------------------------------------------------------------|
G|-----0-----------------------------------------------------------------------|
D|---2---2---------------------------------------------------------------------|
A|-2---------------------------------------------------------------------------|
E|-----------------------------------------------------------------------------|

As many times as needed


OUTRO

Guitar 2
e|---------------------------------------------------------------------------------|
B|---------------------------------------------------------------------------------|
G|---------------------------------------------------------------------------------|
D|-8\6/8--8\6/8--8-----4\2/4--4\2/4--4---------------------------------------------|  x4
A|-8\6/8--8\6/8--8-x8--4\2/4--4\2/4--4-x8------------------------------------------|
E|-6\4/6--6\4/6--6-----2\0/2--2\0/2--2---------------------------------------------|

Then
e|----------------------------------------------------------------------------|
B|----------------------------------------------------------------------------|
G|----------------------------------------------------------------------------|
D|-8------4------8------4-----------------------------------------------------|  x2
A|-8-x16--4-x16--8-x16--4-x16-------------------------------------------------|
E|-6------2------6------2-----------------------------------------------------|


ENDING

Guitar 1
e|----------------------------------------------------------------------------|
B|----------------------------------------------------------------------------|
G|---------------7------------------------------------------------------------|
D|-8\4/8---------7------------------------------------------------------------|
A|-8\4/8---------5------------------------------------------------------------|
E|-6\2/6----------------------------------------------------------------------|

Guitar 2
e|----------------------------------------------------------------------------|
B|----------------------------------------------------------------------------|
G|----------------------------------------------------------------------------|
D|-8\4/8---------8------------------------------------------------------------|
A|-8\4/8---------8------------------------------------------------------------|
E|-6\2/6---------6------------------------------------------------------------|
Tap to rate this tab
# A B C D E F G H I J K L M N O P Q R S T U V W X Y Z