Song name
# A B C D E F G H I J K L M N O P Q R S T U V W X Y Z

Midtown - Such A Person tab

Verse:

------------------------------------------------------------------------------------------|
------------------------------------------------------------------------------------------|
------------------------------------------------------------------------------------------|
-----7------7-----7----7------4------4------2-----2---------------------------------------|
-5-5----5-5---4-4--4-4----2-2-----2-2----0-0--0-0-------5-----5-----5-----5-----5-----5-7-|
----------------------------------------------------3-3---3-3---2-2---2-2---3-3---3-3---5-|

chorus:

-------------|
-------------|
-------------|
-----7-7-----|
-2-5-5-4-2-5-|
-0-3-----0-3-|

I dunno how to play the brigde, sorry

For the outro look up god gave rock and roll to you by KISS.

comment, suggestion, death threats - email at skitso6000@hotmail.com or

theclassicbombastic@hotmail.com
Tap to rate this tab
 
# A B C D E F G H I J K L M N O P Q R S T U V W X Y Z