Song name
# A B C D E F G H I J K L M N O P Q R S T U V W X Y Z

Mighty Mighty Bosstones - To California tab

Artist: Mighty Mighty Bosstones
album:	Medium Rare (2007)
title:	To California
Date: 18/1/2008
By: bobby6k34







this is my first tab realy  tabed it today in the morin becouse i wonted to lern it :)


not shoure about the timeing and the struming may change a little 
any changes send to bobby6killer34@hotmail.com thanks and enjoy


into part

B|--5-5-5-5-5-5--| or e|--0-0-0-0-0-0--| or G|--9-9-9-9-9-9--| 

there all the same note so pick the one you like the best i like the one on B


Verse
e|--5-5-5-5-3-3-3-3--| 
B|--5-5-5-5-3-3-3-3--|
G|--6-6-6-6-4-4-4-4--|  x6
D|--7-7-7-7-5-5-5-4--|
A|-------------------|
E|-------------------|

pre-Chorus

A|--7-7-7-7-7-7--|

 1st Chorus

e|----------------------------------|
B|----------------------------------|
G|----------------------------------|
D|--77xx55xx2~--77xx55xx22----------|
A|--77xx55xx2~--77xx55xx22----------|
E|--55xx33xx0~--55xx33xx00-3h0h3/5--|

e|--------------------------|
B|--------------------------|
G|--------------------------|
D|--77xx55xx2~--77xx55xx22--|
A|--77xx55xx2~--77xx55xx22--|
E|--55xx33xx0~--55xx33xx00--|


Verse

2nd Chorus

e|----------------------------------|
B|----------------------------------|
G|----------------------------------|
D|--77xx55xx2~--77xx55xx22----------|
A|--77xx55xx2~--77xx55xx22----------|
E|--55xx33xx0~--55xx33xx00-3h0h3/5--|

e|--------------------------|
B|--------------------------|
G|--------------------------|
D|--77xx55xx2~--77xx55xx22--|
A|--77xx55xx2~--77xx55xx22--|
E|--55xx33xx0~--55xx33xx00--|


e|----------------------------------|
B|----------------------------------|
G|----------------------------------|
D|--77xx55xx2~--77xx55xx22----------|
A|--77xx55xx2~--77xx55xx22----------|
E|--55xx33xx0~--55xx33xx00-3h0h3/5--|

e|--------------------------|
B|--------------------------|
G|-----5-7~-----------------|
D|--7~-5-7~-7~-5-2~---------|
A|--7~-3-5~-7~-5-2~---------|
E|--5~------5~-3-0~-3h0h3/5-|


|----------|
|----------|
|----------|
|---5--7---|
|---5--7---|
|---3--5---|


end part is 



|----------|
|----------|
|----------|
|---5--7---|
|---5--7---|
|---3--5---|






Tap to rate this tab
# A B C D E F G H I J K L M N O P Q R S T U V W X Y Z