Song name
# A B C D E F G H I J K L M N O P Q R S T U V W X Y Z

Mighty Mighty Bosstones - Toxic Toast tab

e-----------------------------------------------|
B-----------------------------------------------|
G-----------------------------------------------|
D-------------00-4-0---------------0------------|
A----0h2h4-----------00-4-0---------------------|
E-------------------------------22------2--3-3--|     (play 4x)

Chorus 
e----------------------|----------|-----------|
B----------------------|----------------------|
G---7------------------|----------|---7-------|
D---7----7---9---7-----|--9---7---|---7---7---|
A---5----7---9---7-----|--9---7---|---5---7---|
E--------5---7---5-----|--7---5---|-------5---|

Bridge (play with vibrato on the high G)

e------5------5-|                               e---------------|
B---3----33-----|                               B---------------|
G---------------|                               G---------------|
D---------------|                               D----5---7------|
A---------------|                               A----5---7------|
E---------------| (repeat ? times)              E----3---5------|




Tap to rate this tab
# A B C D E F G H I J K L M N O P Q R S T U V W X Y Z