Song name
# A B C D E F G H I J K L M N O P Q R S T U V W X Y Z

Mighty Mighty Bosstones - Rascal King tab

Title: The Rascal King
Artist: The Mighty Mighty Bosstones
Album: Let's Face It
Year: 1997

Tabber: Illegal Left,  Sami

Date: 11:52 AM 18/03/2010



Excellent song and awesome band! This song has 3 guitar parts to it: the verse riff, the 

chorus riff, and the solo. The intro is the same as the verse riff. At the starting of the 

album recording, they all jump in at the same time.

 Verse Riff
 
|-x-4-x-4-x-4-x-4-x-4-x-4-x-4-x-4-x-6-x-6-x-6-x-6-|
|-x-6-x-6-x-6-x-6-x-4-x-4-x-4-x-4-x-7-x-7-x-7-x-7-|
|-x-6-x-6-x-6-x-6-x-5-x-5-x-5-x-5-x-8-x-8-x-8-x-8-|
|-------------------------------------------------|
|-------------------------------------------------|
|-------------------------------------------------|


 Chorus Riff

|-x-4-4--x-4-4--x-6-6--x-6-6--x-8--8---x-8--8---x-6-6--x-6-6-|
|-x-6-6--x-6-6--x-7-7--x-7-7--x-9--9---x-9--9---x-7-7--x-7-7-|
|-x-6-6--x-6-6--x-8-8--x-8-8--x-10-10--x-10-10--x-8-8--x-8-8-|
|------------------------------------------------------------|
|------------------------------------------------------------|
|------------------------------------------------------------|


They have a short organ solo before the guitar solo. In "Live in the Middle East" the 

guitarist improvises for the organ solo.

Solo

|-9------9---12-9--7--------4-4-4-4--4-6-6-6-6--6-6-|
|-9------9---12-9--7--------4-4-4-4--4-7-7-7-7--7-7-|
|---------------------------------------------------|
|---------------------------------------------------|
|---------------------------------------------------|
|---------------------------------------------------|

"Smile wink and nod. HEY!"     :D
Tap to rate this tab
# A B C D E F G H I J K L M N O P Q R S T U V W X Y Z