Song name
# A B C D E F G H I J K L M N O P Q R S T U V W X Y Z

Mighty Mighty Bosstones - The Skeleton Song tab

-------------------------------------------------------------------------------
			     THE SKELETON SONG - Mighty Mighty Bosstones
-------------------------------------------------------------------------------
Tabbed by: goodbar

I noticed there aren't any tabs up for this song, so I gave it a try. 
Please let me know if you have any suggestions/corrections. 

Intro:
e|----------------------------------|
B|----------------------------------|
G|-9-9-9-9---------9-9-9-9----------|
D|-9-9-9-9-7-7-7-7-9-9-9-9-9-9-9-9--| 
A|-7-7-7-7-7-7-7-7-7-7-7-7-9-9-9-9--|
E|---------5-5-5-5---------7-7-7-7--|

Verses (palm muted) and Chorus (distorted):
e|----------------------------------|
B|----------------------------------|
G|-9-9-9-9--------------------------|
D|-9-9-9-9-6-6-6-6-7-7-7-7-9-9-9-9--| x2
A|-7-7-7-7-6-6-6-6-7-7-7-7-9-9-9-9--|
E|---------4-4-4-4-5-5-5-5-7-7-7-7--|

figure at the end of the breaks
e|---------------|
B|---------------|
G|---------------|
D|---0-2---2-4-2-|
A|-2-----4-------|
E|---------------|

Bridge:
e|--------------------------|
B|--------------------------|
G|--------------------------|
D|-4-4-2-2-4-4-2-2-9-9-9-9--| x2 
A|-4-4-2-2-4-4-2-2-9-9-9-9--|
E|-2-2-0-0-2-2-0-0-7-7-7-7--|
followed by one time through the verse/chorus progression, letting each chord ring

Here's the order:
Intro
Verse
Chorus
Break
Verse
Chorus
Bridge
Verse
Chorus
Break

************************************

| /   slide up
| \   slide down
| h   hammer-on
| p   pull-off
| ~   vibrato
| +   harmonic
| x   Mute note
| b   Bend
| pb  Pre-bend
| br  Bend release
| pbr Pre-bend release
| brb Bend release bend

************************************
Tap to rate this tab
# A B C D E F G H I J K L M N O P Q R S T U V W X Y Z