Guitaretab - guitar tabs
Song name
# A B C D E F G H I J K L M N O P Q R S T U V W X Y Z

Mighty Mighty Bosstones - Sugar Free tab

Tabbed by: Tom Bombadil in cooperation with
MR "unbelieveable", "amazing", "Motherfucking", "cool", "fat",
"klein", "Wurstfinger" Dirk Edelhoff

> = strum
 = let it ring

INTRO

E -------------------------------------|
B -------------------------------------|
G 6--4-6-7-6--4-6-4-6--7-6-4--2-4-6-2--|
D 7--------7--------7------6--------4--| x2
A 0--------0--------0------------------|
E -------------------------------------|


VERSE
[ Tab from: http://www.guitaretab.com/m/mighty-mighty-bosstones/31849.html ]
E ---------------|
B ---------------|
G -2--4------7--|
D -2--6--6-7-7--| WELL...LISTEN TO THE ALBUM...SAME IN CHORUS...!
A -0--7------5--|
E ---------------|


BRIDGE

E -------------|
B -------------|
G -6>--7>--9>--|
D -6>--7>--9>--|
A -4>--5>--7>--|
E -------------|


OTHER VERSION OF INTRO (FOR THE NOT SO BEGABT ONES):

E ---------------------------------|
B ---------------------------------|
G -6-4-6-7-6-4-6-4-6-7-6-4---4-6---|
D -------------------------7-----7-|
A ---------------------------------|
E ---------------------------------|

HORN PART

E -?>-|
B -?>-|
G -?>-|
D -?>-| NO IDEA - LISTEN TO THE ALBUM
A -?>-|
E -?>-|
Related for Sugar Free tab