Song name
# A B C D E F G H I J K L M N O P Q R S T U V W X Y Z

Mighty Mighty Bosstones - Rascal King tab

Tabbed by: Ade Percival
This song has only got to parts to it on guitar but it is a bitchin' song and is alot of 
to play.

Intro/Verse
E|-4-44--4-44--6-66--4-44--|
B|-6-66--4-44--7-77--4-44--|
G|-6-66--5-55--8-88--5-55--|
D|-------6-66--------6-66--|
A|-------------------------|
E|-------------------------|

Chorus
E|-4-44--6-66--8--8-8---6-66--|
B|-6-66--7-77--9--9-9---7-77--|
G|-6-66--8-88--10-1010--8-88--|
D|----------------------------|
A|----------------------------|
E|----------------------------|

Order:
Intro(x2)
Verse(x4)
Chorus(x4)
Verse(x4)
Chorus(x4)
Intro(x4)
Verse(x4)
Chorus(x4)
End
Tap to rate this tab
 
# A B C D E F G H I J K L M N O P Q R S T U V W X Y Z