Song name
# A B C D E F G H I J K L M N O P Q R S T U V W X Y Z

Mighty Oaks - Just One Day chords

CAPO 3RD FRET

Play this the whole time until bridge:

e|---0-------------0--0-||---0-------------0--0-|
B|---4-------------4--0-||---4-------------4--0-|
G|---5-------------5--0-||---0-------------0--0-|
D|---6-------------6--6-||---5-------------5--0-|
A|---6-------------6--6-||---6-------------6--6-|
E|---X-------------X--X-||---6-------------6--6-|


then bridge:

e|---0--------0---------||---0------------------|
B|---0--------4---------||---4------------------|
G|---0--------0---------||---5------------------|
D|---2--------5---------||---6------------------|
A|---2--------6---------||---6------------------|
E|---0--------6---------||---X------------------|


then the main riff again

e|---0-------------0--0-||---0-------------0--0-|
B|---4-------------4--0-||---4-------------4--0-|
G|---5-------------5--0-||---0-------------0--0-|
D|---6-------------6--6-||---5-------------5--0-|
A|---6-------------6--6-||---6-------------6--6-|
E|---X-------------X--X-||---6-------------6--6-|
Tap to rate this tab
 
# A B C D E F G H I J K L M N O P Q R S T U V W X Y Z