Song name
# A B C D E F G H I J K L M N O P Q R S T U V W X Y Z

Mighty Oaks - The Great Northwest chords

Highlighted       Show chord diagrams
CAPO 4TH FRET 

Play the whole time until bridge:

e|---0-------------||---0-------------||---0-------------|
B|---0-------------||---0-------------||---5-------------|
G|---8-------------||---0-------------||---0-------------|
D|---9-------------||---8-------------||---6-------------|
A|---9-------------||---9-------------||---7-------------|
E|---0-------------||---9-------------||---0-------------|


then bridge (basically Bm, A, Em + modified G)

e|---6-------------||---0-------------||---0---------0-0-||---0-------------|
B|---7-------------||---6-------------||---0---------0-0-||---0-------------|
G|---8-------------||---6-------------||---0---------0-0-||---0-------------|
D|---8-------------||---6-------------||---6---------6-6-||---0-------------|
A|---6-------------||---0-------------||---6---------0-0-||---6-------------|
E|---X-------------||---0-------------||---0---------6-6-||---7-------------|
Tap to rate this tab
 
# A B C D E F G H I J K L M N O P Q R S T U V W X Y Z