Miguel Balboa - Empezar chords

Highlighted       Show chord diagrams
Intro: //E F# G# B// x2

Verse 1
E                                  F#
Voy a dejarme perderme en el tiempo
G#                               B
Voy a empezar a buscarte de nuevo
E                               F#
Voy a dejar de pensar en lo malo
G#                                  B
Voy a engancharme de nuevo a tu mano

Bridge 1: //E G# A G#// x4

Verse 2
E                                F#
Voy a dejar de enfrentar el vacio
G#                             B
Voy a poner tu camino en el mio
E                      G#
Voy a destrir mi maldad
F#               G#  C#(D#-E)
Todo vuelve  a su lugar
F#        G#
Y asi poder

Chorus
E                          G#
Empezar a hacer tu voluntad
                     E
A perder mi humanidad
                B
Y ser mas como tu

Solo
e--------------------------------------|
B--------------------------------------|
G--------------------------------------|
D--------------14-13-------------------|
A-7--9-11-7-11---------7--9-11-9-7-9-6-|
E--------------------------------------|

Verse 2
//Chorus// x2

Bridge 2: //G# C# B//
Bridge 1 then //B//

//Chorus// x2
Solo
Bass Ending:
G-----------------------------------------|
D-----------------------------------------|
A---4-2-4---4-2-44-2----------------------| x2
E-4-------4----------2-4-2-4-2---4445544--|

Official Website of Miguel Balboa
http://miguelbalboa.com/
Tap to rate this tab
 
# A B C D E F G H I J K L M N O P Q R S T U V W X Y Z