Song name
# A B C D E F G H I J K L M N O P Q R S T U V W X Y Z

Miguel Escueta - Isipin tab

Highlighted       Show chord diagrams
 - hi there! i'm jayson hernandez the drummer of the band onedash18 pro bgo aq mgong 
ay dumaan muna aq sa fret ng gitara.
 - kaya here's my tablature of ISIPIN by MIGUEL ESCUETA
 - pnu ksi ung gitarista nmn chords lng pnost
 - aun kinapa q ung mataas n chords
 - sana mgustuhan nyo
 - i dedicate this SONG to my very special girl for me, i hope n sana mgustuhan nya din, iloveyou.

Isipin
Miguel Escueta

Verse 1:
      A          E/B        F#
 e|----------|----------|-------------|
 B|---10-----|---10-----|---10--------|
 G|----9-----|----9-----|----9--------|
 D|--7-------|----9-----|----0--------|
 A|----------|----------|-------------|
 E|----------|----------|-------------|

A     E/B         F#
Kanina pa ako tumitingin
A     E/B      F#
Halata na ba ako?
A            E/B               F#
Kasi naman, kanina pa nakatitig sayo..

Refrain:
    C#m       Bm        D
e|--------|---------|---2------|
B|----5---|-----3---|------3---|
G|--4-----|---2-----|---2------|
D|--------|---------|----------|
A|--4-----|---2-----|----------|
E|--------|---------|----------|

C#m
Hindi ko alam
Bm         C#m
Kung paano ako
        D
Lalapit sayo... ohhhhh...

Chorus:
     A      C#m     F#m      E
e|---5---|-------|-------|-------|
B|---5---|-------|-------|-------|
G|---6---|---9---|---2---|---1---|
D|---7---|---9---|---2---|---2---|
A|---7---|-------|-------|---2---|
E|---5---|---9---|---2---|---0---|

Do chords pattern:
Bumibilis nasasabik
Sa paglipas ng panahon
Dumadalas ang pagdaloy moi sa isip ko... ohhhh..

Verse2: do chords same to the Verse!

Refrain: do chords same to the 1st Refrain

Bridge:
G      Bm         C
Ang tagal ng nakaukit
G        Bm             C
Dati pang sinisigaw ng damdamin

*Adlib

Refrain:
C#m        Bm            C#m
Hindi ko alam kung paano ako
          D-E
Lalapit sa ‘yo

*Repeat Chorus

yan thanks!
paki rate nmn ah!... =)

4 comments
- www.frienster.com / json03@gmail.com
- www.friendster.com / onedash18

ENJOY!.... =)
Tap to rate this tab
# A B C D E F G H I J K L M N O P Q R S T U V W X Y Z