Song name
# A B C D E F G H I J K L M N O P Q R S T U V W X Y Z

Miguel Llobet - El Testament Damelia tab

Attention: D tuning , 3/4


e:-------------------------------------3--6--5/6--8-----6--5-----------------5------|
B:3--3--3--6-----8--10--------6-----------6-------------------6--------8--------6--8|
G:---2--------7---------7--------7--------7----------5--------5--------6--------7---|
D:---3--------8---------7--------7--------5----------5-----------7--------------7---|
A:-------------------------8--------5-------------7--------8--------7--------5------|
D:0--------0--------0---------0--------0----------------------------------7---------|



e:------------------------------------------------------------------r(5--r(1--r(3---|
B:--10-----11--8--------6--------3--6--5/6--8-----6--3------------------------------|
G:------8---------6--------7-----1-------------6--------2-----2-----------2---------|
D:-------------------------7-----3-------------7--------3--0--3-----0---------------|
A:------9---------7--0--------0--1----------0--------------------0------------------|
D:--10---------8--------0----------------------------0--------0---------------------|



e:r(5-----r(6--r(3--------r(1------------r(1--r(0--r(1--r(3-----r(1------------------|
B:-----4------------2----------3----r(3----------------------2------r(3--------------|
G:-----------------------------2-----1-----------------------2-----------2--------2--|
D:-3---4------------2----------------------------------------------------3--------3--|
A:--------------1------0----------0--1-------------------0------------------0--------|
D:-------------------------0-----------------------------------------0---------0-----|



e:----------------8--------6--5-----6--5--4-------------5--------5------|
B:------10-----------------5--------3-------------------8--------3------|
G:------7---------8--------6--------------3-------------6---------------|
D:---7------5--7-----8--5--------3--------0--3--2/3--5--------0--3--r(0-|
A:0-----8--------------------------------------------0-----8--------r(0-|
D:---0------------------------------------0-------------------0-----r(0-|



Tab information:

----r(5---    pizzicato on fifth fret
(Pizzicato: mute the string with the tip of m finger right after i finger.
Pizzicato is applied by skipping 12 frets from the fret number written on
the tab; so for making a r(5, you should do this muting on the 17th fret)
Tap to rate this tab
# A B C D E F G H I J K L M N O P Q R S T U V W X Y Z