Song name
# A B C D E F G H I J K L M N O P Q R S T U V W X Y Z

Miguel Llobet - Op 47 No 4 Suite Espanola - Celebre Serenata Espanola Cadiz tab

The basic rhythm is 1-123-2-and-3-and ect...
This transcription is based on the guitar arangement of Miguel Llobet.

Tablature explanation at the end of the piece.

CADIZ - Isaac Albeniz

Key signature: D major and D minor
Tuning: DADGBE
Time signature: 3/4
Tempo: Allegretto ma non troppo (moderately)

PART 1:

C.5 ---------------------------------------------                                         
   |   --3--   |      |         |  --3--  |        |
e|-----5-----------5------5--|-----5----------5---------5-----|
b|-------7---------7------7--|-------8--------8---------6-----|
g|---------7-------7------5--|---------6------6---------------|
d|-------------7-------------|------------7-------------------|
a|--5-===============-0---6--|--7------------------0----4-----|
d|--0-===============--------|--------------------------------|



    |  --3--   |       |         |  --3--  |        |
e|-----5-------------------5--|-----5---------------------------|
b|-------7-----------------7--|-------8-------------------6-----|
g|---------7---------------5--|---------6-----------------6-----|
d|-------------7--<7>---------|------------7--<7>---------------|
a|--5-==========-------0---6--|--7------------------0-----------|
d|----------------------------|---------------------------------|


    |  --3--   |       |         |  ---3---  |         |
e|----------------------------|--------------------------------|
b|--7----------7-----------7--|--7-------10--10----------------|
g|----------7-----------------|-------------------7---------7--|
d|------6s7-------<7>---------|------6s7--------------------7--|
a|----------------------------|-------------------9----0-------|
d|--0-===============--<7>----|--0-==================----------|







C.6-----------                  C.7--------------
    |  --3--   |        |         |   ---3---  |      |
e|-------------5--7-s--10---9--|--12--7-------------------------|
b|-----8====---8------------8--|-----------8---10---------8-----|
g|---------6------4-s--7----6--|--------7----------6------6-----|
d|-----6h7------------------7--|--------------------------7-----|
a|--7-------------------0------|--7-------------------0---------|
d|-----------------------------|--------------------------------|


    |  --3--   |       |         |  ---3---  |         |
e|----------------------------|--------------------------------|
b|--7----------7-----------7--|--7-------10--10----------------|
g|----------7-----------------|-------------------7---------7--|
d|------6s7-------<7>---------|------6s7--------------------7--| 
a|----------------------------|-------------------9----0-------|
d|--0-===============--<7>----|--0-==================----------|


    |  --3--   |        |         |         |      |
e|-------------5--7-s--10---9--|--15--------------------------|
b|-----8====---8------------8--|------<12>--10========--6-----|
g|---------6------4-s--7----6--|------<12>-----0--------6-----|
d|-----6h7------------------7--|--14-----------11-------7-----|
a|--7-------------------0------|-------------------0----------|
d|-----------------------------|------------------------------|


    |   --3--  |      |         |  --3--   |      |
e|--10---------10---------9---|-9----------7-------5----7-----|
b|----------7------7----------|---------8------7--------7-----|
g|--------7--------7------7---|-0---6s7--------8--------5-----|
d|------8-----------------8---|-------------------------------|
a|--9-----------------9-------|--------------------6----------|
d|----------------------------|-------------------------------|


    |   --3--   |      |         |   ---3---  |       |
e|--5-----------3--------------|--------------0----------------|
b|-----------5-----4---8---7---|--7----------------------------|
g|-------3s4-------5-------6---|--0---------------7---11---9---|
d|--2------------------9---7---|------8s9h10--9----------------|
a|-----------------------------|--7----------------------------|
d|-----------------------------|-------------------------------|


    |       |      |        |       |       |
e|--------------------0--|------------------0----------|
b|--3---2---2------0-----|------0---3---2---------2----|
g|--1---1---1------1-----|--2-------2---1---1-----1----|
d|--4---2---0------0-----|--2---4---4---2---------2----|
a|-----------------------|--4---5-----------0=========-|
d|--2----------2---------|--2--------------------------|





    |  --3--  |      |         |       |       |
e|--------------------------|--------------------------|
b|--0---------3------2------|------0---2---8---7---6---|
g|--1---------1------1------|--2-------0---6---6---6---|
d|--0--1h2h4===------0------|------4---2---9---7---5---|
a|--------------------------|--0---5---0==============-|
d|--2-------------2------2--|--------------------------|


     |  --3--   |       |         |  ---3---  |         |
e|----------------------------|--------------------------------|
b|--7----------7-----------7--|--7-------10--10----------------|
g|----------7-----------------|-------------------7---------7--|
d|------6s7-------<7>---------|------6s7--------------------7--|
a|----------------------------|-------------------9----0-------|
d|--0-===============--<7>----|--0-==================----------|


C.6-----------                  C.7--------------
    |  --3--   |        |         |   ---3---  |      |
e|-------------5--7-s--10---9--|--12--7-------------------------|
b|-----8====---8------------8--|-----------8---10---------8-----|
g|---------6------4-s--7----6--|--------7----------6------6-----|
d|-----6h7------------------7--|--------------------------7-----|
a|--7-------------------0------|--7-------------------0---------|
d|-----------------------------|--------------------------------|


    |  --3--   |       |         |  ---3---  |         |
e|----------------------------|--------------------------------|
b|--7----------7-----------7--|--7-------10--10----------------|
g|----------7-----------------|-------------------7---------7--|
d|------6s7-------<7>---------|------6s7--------------------7--| 
a|----------------------------|-------------------9----0-------|
d|--0-===============--<7>----|--0-==================----------|


                                                     C.3------
    |  --3--   |        |         |         |        |
e|-------------5--7-s--10---9--|--15-----------------5---4----|
b|-----8====---8------------8--|------<12>--10---8---5--------|
g|---------6------4-s--7----6--|------<12>-------6---3---5----|
d|-----6h7------------------7--|--14--------------------------|
a|--7-------------------0------|-----------------0---3--------|
d|-----------------------------|------------------------------|


    | --3--   |      |        |        |         |
e|--5---------5---------5-s|--8--6--s--10---12---17---15---|
b|---------3------------4--|-------------------------------|
g|-----4h5----5---5--------|--0------------------15--------|
d|--3-------------------4--|-----------10------------------|
a|-------------------3-----|-------------------------------|
d|-------------------------|-------------------------------|



    | --3--   |      |        |        |         |
e|--5---------5---------5-s|--8--6--s--10---12---17---15---|
b|---------3------------4--|-------------------------------|
g|-----4h5----5---5--------|--0------------------14---12---|
d|--3-------------------4--|-----------10------------------|
a|-------------------3-----|-------------------------------|
d|-------------------------|-------------------------------|


    |  --3--   |      |        
e|--5----------5--0---13------|
b|--6--5h6p5---8------10------|
g|-------------8--------------|
d|--------------------11------|
a|--0---------------------12--|
d|----------------------------|


    |         |        |           |       |       |
e|--14---12---10---9---7----5---|--3---5---6---7---10------|
b|--10------------11--------7---|-----------------------8--|
g|-------12---11---9---7----5---|--4---2---3---4---7-------|
d|--0----8----9-----------------|--2-----------------------|
a|-----------------9---10---6---|--------------------------|
d|------------------------------|--------------------------|


     |  --3--   |        |           |  --3--  |      |
e|---7----------------------------|-----5---------5--------5-----|
b|---8---------<7>----------------|-------7-------7--------7-----|
g|---6--------------<12>----------|---------7-----7--------5-----|
d|------6h7h9--<7>------------11--|------------7-----------------|
a|---0--------------------0-------|--5----------------0----6-----|
d|--------------------------------|--0---------------------------|


   |  --3--   |       |          | --3--  |       |
e|----5-----------5-------5---|----5-------------------5------|
b|------8---------8-------6---|------7-----------------7------|
g|--------6-------6-----------|--------7---------------5------|
d|------------7---------------|-----------7---<7>-------------|
a|--7-----------------0---4---|--5-----------------0---6------|
d|----------------------------|-------------------------------|



     |  --3--   |       |               
e|------5------------------------||
b|--------8----------------------||
g|----------6--------------------||
d|--------------7--<7>-----------||
a|---7------------------0--------||
d|-------------------------<7>---||


PART 2:
-------

    |  --3--  |      |        |  --3--   |       |
e|--5--5====--5--5---5---5--|-5--5====---5---5---5---5---------|
b|--6--6====--6--6---6---6--|-6--6====---6---6---6---6---------|
g|--7--5h7p5-----5---7---9--|-7--6h7p6-------------------------|
d|------------8-------------|------------7==========-----------|
a|--------------------------|----------------------------------|
d|--------------------------|----------------------------------|

     |  ---3---   |         |            |  ---3---  |       |
e|--13--------------------------------|-----------------------------|
b|------10======--10---10---10---10---|--10----------10--10--10--10-|
g|------10======--10---10---10---10---|--10----------10--10--10--10-|
d|--12--10b12p10-------10---12---14---|--12-11h12p11----------------|
a|----------------13------------------|--------------12-------------|
d|------------------------------------|-----------------------------|



    |    ---3---   |       |          |   ---3---   |       |
e|--13--12h13p12---10--12--13--10--|--13--12h13p12--10--12--13--10--|
b|--11===================--10=====-|--11==================--10=====-|
g|--0====================----------|--0===================----------|
d|-------------------------0======-|------------------------0======-|
a|---------------------------------|--------------------------------|
d|---------------------------------|--------------------------------|



    |  --3--  |      |          |        |       |
e|--8--6h8p6--5------6---8---|--10---8---6---8---5-------|
b|--6-------------5--6---8---|--10---8---6---8---5-------|
g|--9--7------6------7---9---|--10---9---7---9---6-------|
d|---------------------------|---------------------------|
a|--0------------------------|---------------------------|
d|---------------------------|----------------------<7---|
                    |pizz.........................|



|  --3--  |      |        |  --3--   |       |
e|--5--5====--5--5---5---5--|-5--5====---5---5---5---5---------|
b|--6--6====--6--6---6---6--|-6--6====---6---6---6---6---------|
g|--7--5h7p5-----5---7---9--|-7--6h7p6-------------------------|
d|------------8-------------|------------7==========-----------|
a|--------------------------|----------------------------------|
d|--------------------------|----------------------------------|

     |  ---3---   |         |            |  ---3---  |       |
e|--13--------------------------------|-----------------------------|
b|------10======--10---10---10---10---|--10----------10--10--10--10-|
g|------10======--10---10---10---10---|--10----------10--10--10--10-|
d|--12--10b12p10-------10---12---14---|--12-11h12p11----------------|
a|----------------13------------------|--------------12-------------|
d|------------------------------------|-----------------------------|



    |    ---3---   |       |          |   ---3---   |       |
e|--13--12h13p12---10--12--13--10--|--13--12h13p12--10--12--13--10--|
b|--11===================--10=====-|--11==================--10=====-|
g|--0====================----------|--0===================----------|
d|-------------------------0======-|------------------------0======-|
a|---------------------------------|--------------------------------|
d|---------------------------------|--------------------------------|

C.6--------------------|             C.5--------| C.7--------------|
     |   --3--   |       |            |  --3--   |       |
e|--------------------------------|---------------------------------|
b|---6-========--6-------10---8---|---6--5h6p5----------------------|
g|---7-========--6---6---9----7---|---6----------7--------7=======--|
d|---10--8h10p8--7-------10---8---|---5----------7---8----7=======--|
a|--------------------------------|---0----------8---10---8=======--|
d|--------------------------------|--------------0-===============--|


 
     |       |       |            |     --3--   |  ---3---  |
e|---0---0---0------------------|-------0-------0---------------17--|
b|------------------------------|------------------11h13p11-10------|
g|--(6---6---7------------------|-------7-------6-------------------|
d|--(7-------------7-8-10-8-----|-(7----8h10p8--7-------------------|
a|--)0----------10----------10--|-)0--------------------------------|
d|------------------------------|-----------------------------------|



    |          |         |           |---3---        |      |
e|--17-=======-15--------13--12--|---10h12p10--8--6--5------5-------|
b|--14-========-----14---10------|---10-----------------6---5-------|
g|--15-========--------------12--|---10-----------------7---6-------|
d|-------14=======-------11------|----------------------------------|
a|--0-==========================-|---0============================--|
d|-------------------------------|----------------------------------|




     |       |       |            |     --3--   |  ---3---  |
e|---0---0---0------------------|-------0-------0---------------12--|
b|------------------------------|------------------11h13p11-10--11--|
g|--(6---6---7------------------|-------7-------6-------------------|
d|--(7-------------7-9-10-9-----|-(7----8h10p8--7---------------10--|
a|--)0----------10----------10--|-)0--------------------------------|
d|------------------------------|-----------------------------------|

C.10--------------------------------------
    |   ---3---    |        |            
e|--13--12h13p12---10.---10-12-15-12-----|
b|--10-------------11----------------13--|
g|--10-------------10--------------------|
d|---------------------------------------|
a|---------------------------------------|
d|---------------------------------------|


C.8----------------------------------
    |   ---3---    |           |            
e|--10--10h12p10---8-13-10-12--8------|
b|--11-------------10---11-----10-----|
g|------------------------------------|
d|------------------------------------|
a|--8================================-|
d|------------------------------------|


   |  --3--   |         |   --3--    |        |           |
e|-0----------0---------0----------|-0--12-13-15-17-15-12---13-12---|
b|---------------------------------|----------------------14-----11-|
g|-7----------6---------7----------|-6------------------------------|
d|-8--8h10p8--7-----7---8---8h10p8-|-7------------------------------|
a|---------------7-----------------|--------------------------------|
d|---------------------------------|--------------------------------|

 
    |  --3--  |         |  --3--     |        |           |
e|------------0---------0----------|-0--12-13-15-17-15-12---13-12---|
b|-10------------------------------|----------------------14-----11-|
g|------------6---------7----------|-6------------------------------|
d|----8h10p7--7-----7---8--8h10p8--|-7------------------------------|
a|---------------7-----------------|--------------------------------|
d|---------------------------------|--------------------------------|


    |         |              |     
e|----------------10--8------------------------|
b|--10---8h10-11---------10--8h11---10---------|
g|--------------------------------------10-----|
d|---------------------------------------------|
a|---------------------------------------------|
d|---------------------------------------------|



    |             |            |     
e|--------------------------------------------|
b|---------8--10--8---------------------------|
g|--9--10------------9--10--7--9------7-------|
d|--------------------------------10-----8----|
a|--------------------------------------------|
d|--------------------------------------------|


    |   --3--   |-3--   --3--  |-3-- --3--     
e|------0-------0-------0------0-----0--------|
b|--------------------------------------------|
g|--------------------------------------------|
d|--7---5h7h8---7h8p7---5h7h8--7h8h7--5h7h8---|
a|--0-----------0--------------0--------------|
d|--------------------------------------------|




   |     |        |        
e|----------->5--------------||
b|-----------<8--------------||
g|----------->6--------------||
d|-7---7-----<7-----7--------||
a|-0--------->0-----0--------||
d|---------------------------||

Play part 1 again then go to the Coda section.



CODA:
-----
                             C7---------------
   |          |              |     
e|--------------------------------------------|
b|------------------------------7-----10------|
g|------------------------7--------7----------|
d|----------4-----7---4-------7---------------|
a|-------0-----5------------------------------|
d|--0-----------------------------------------|
         |Pizz...........................|


C7----------------------------
   |            |             |     
e|-----10-----------------10-----14------17----|
b|--7--------7-----10--7------10-----15--------|
g|--------------7------------------------------|
d|--------7------------------------------------|
a|---------------------------------------------|
d|---------------------------------------------|
  |Pizz....................................|


      |     |     |      |       |        |
e|---)17.===========-|-----------------------||
b|---(15.===========-|--<7>.===============--||
g|---)14.===========-|--<7>.===============--||
d|---(12.===========-|--<7>.===============--|| Fin
a|-------------------|-----------------------||
d|-------------------|--<5>.===============--||


-----------------------------------------------------------


TABLATURE EXPLANATION:
----------------------                                          
e|--2h3------------|---------4s5----<12>---|----(0--------|
b|--------2p1------|-tr--------------------|----)1--------|
g|-----------------|(0p1)------------------|----(2--------|
d|-----------------|-----------------------|----)2--------|
a|-----------------|-----------------------|----(0--------|
e|-----------------|-----------------------|--------------|
   hammer   pull-     trill  slide  natural     rake 
    on     offs                    harmonic    
             
                                       ---3---- 
e|---<5>17-------||--------------------5------------------|
b|---------------||--------4=========-----4---------------|
g|---------------||-*------------------------5------------|
d|---------------||--------------------------------5------|
a|---------------||-*----------------------------------5--|
e|---------------||---------------------------------------|
   artificial   repeat     sustain    triplet     |pizz.|
   harmonic                                      pizzicato
   
              %         C5--------------|
e|---(5)p4----5---|----------------5-------------<0-----|
b|----------------|-------5-----------6---------->1-----|
g|----------------|-----------7------------------<2-----|
d|----------------|------------------------------>2-----|
a|----------------|-----------------------7.-----<0-----|
e|----------------|-------------------------------------|
     grace   mordent     hold barre     dotted   rasqueado
     note                               note                         
Tap to rate this tab
# A B C D E F G H I J K L M N O P Q R S T U V W X Y Z