Song name
# A B C D E F G H I J K L M N O P Q R S T U V W X Y Z

Miguel Mateos - Con Mi Sombra En La Pared tab

COn mi sombra en la pared
Miguel Mateos

(Acoustic version) 

Drop D

---Intro---        
e:----------|-------------------------|-------------------------|
B:----------|-------------------------|-------------------------|
G:----------|-------------------------|-------------------------|
D:----------|-3-3-2-2----------3-2----|3-3-2-2---------5-3-2----|
A:--x-x-x-x-|---------3-3-5-5-----3-5-|--------3-3-5-5-------1--|
DE:--x-x-x-x-|-0-----------------------|-------------------------|(BIS)

e:|------------------------------|---------------------------------|
B:|------------------------------|---------------------------------|
G:|------------------------------|---------------------------------|
D:|---------------------3-2------|----------------------5-3-2------|
A:|-5-5-3-3-5-5-3-3-5-5-----3-3/-|-/5-5-3-3-5-5-3-3-5-5-------3-5--|
D:|-0-0-0-0-0-0-0-0-0-0----------|--0-0-0-0-0-0-0-0-0-0-------0-0--|

e:|------------------------------|--------------------------|
B:|------------------------------|--------------------------|
G:|------------------------------|--------------------------|
D:|---------------------3-2------|--------------------------|
A:|-5-5-3-3-5-5-3-3-5-5-----3-3/-|-/5-5-3-3-5-5-3-3-5-5-----|
D:|-3-3-3-3-3-3-3-3-3-3----------|--0-0-0-0-0-0-0-0-0-0-----|
    
            Dm
 Llegando a casa estoy
                       Gm
 y se que todo sera igual
Dm
 ir a mi habitacion
                            Gm
 subir la radio hasta explotar.

    A#
 SoNar estar tocando en una banda
     C        Dm  
 un rock and roll

e:|------------------------------|
B:|---------------------6-5------|
G:|-7-7-5-5-7-7-5-5-7-7-----5-7--|
D:|-0-0-0-00-0-0-0-0-0------0-0--|
A:|------------------------------|
E:|------------------------------|(BIS)

    A#
 soNar que todo el mundo
                        C
 esta escuchando menos vos.

-----CHORUS----
   Dm                Gm   
 Bailo, bailo hasta caer
A#       C              Dm
 con mi sombra en la pared
             Gm
 nada que perder
A#             C              Dm   
 bailo con mi sombra en la pared.


----vERSE---
 Puedo no ser feliz
 lo que no admito es no inentar serlo
 veo en el porvenir
 tu chicle aun pegado en mi

 Soy como un bebe de Hiroshima
 como un Rolling Stone
 puedo tener todo en un dia
 por amor.

----CHORUS----

----BRIDGE---

Am                A#
 Cuando no pueda mas
                   C
 voy a salir de aqui
                   Dm
 para empezar de nuevo
Am                A#
 sin dejar de bailar
                      C
 yo no me voy a entregar
                          Dm
 volvere a entrar en el juego.

----intro----
---CHORUS-----
Tap to rate this tab
# A B C D E F G H I J K L M N O P Q R S T U V W X Y Z