Guitaretab - guitar tabs
Song name
# A B C D E F G H I J K L M N O P Q R S T U V W X Y Z

Miguel Rios - Santa Lucia tab

'Santa Lucia' by Miguel Rios
Standard Tuning
tabbed by jjhand

CHORDS

   F    Bb   C    Csus4   B5     C/Bb    Am     D     Gm    G     C6   C#maj7

e  1    1    3    x       x      x       5      5     3     3     4    4
B  1    3    5    6       x      5       5      7     3     3     5    6
G  2    3    5    5       4      5       5      7     3     4     5    5
D  3    3    5    5       4      5       7      7     5     5     5    6
A  3    1    3    3       2      x       7      5     5     5     x    4
E  1                             6       5      x     3     3     x

Song is in 4/4 time (4 beats per bar)



Intro - strum chords as shown in first bar
   F           Bb    F           Bb  F           Bb   F           Bb 
e|-1----1-1--------|----------------|---------------|---------------------|
B|-1----1-1--------|----------------|---------------|---------------------|
G|-2----2-2----3-2-|----------------|-----------5/7-|-5~------------------|
D|-3----3-3----3-3-|----------------|-3~------------|---------7\5-0-3-3/5-|
A|-3----3-3----1-1-|----------------|---------------|---------------------|
E|-1----1-1--------|----------------|---------------|---------------------|


Verse - similar strumming to Intro, but chords change

   F           Bb       F   C        Csus4 C        Bb   F            Bb
e|-----------|------------|-------------|--------------|------------|------------|
B|-----------|------------|-5-------5h6-|-p5-----------|------------|------------|
G|-----------|------------|-5-----------|--5*------2h3-|-2----------|------------|
D|-3~--------|------------|-------------|--------------|-3*---------|------------|
A|-----------|------------|-------------|--------------|------------|------------|
E|-----------|------------|-------------|--------------|------------|------------|

  C        Csus4 C             B5    Bb          C/Bb       Am          D
e|-------------|-10-8-8-------------|----------|----------|-----------|-------------|
B|-------------|-8--8-8-10-10-8-8-7-|-6--------|-5--------|-----------|-------------|
G|-------------|--------9--9--9-9-8-|-7--------|--------5-|-----------|-------------|
D|-------------|--------------------|----------|----------|-5---------|-5/7~--------|
A|-------------|--------------------|----------|----------|-----------|-------------|
E|-------------|--------------------|----------|----------|-----------|-------------|

   Gm            G           C         C6
e|-5-6-8-5-----|-----------|---------|-4--------|
B|-------------|-----------|-5-------|-5--------|
G|-------------|-----------|-5-------|-5--------|
D|-------------|-----------|---------|----------|
A|-------------|-----------|---------|----------|
E|-------------|-----------|---------|----------|


[ Tab from: http://www.guitaretab.com/m/miguel-rios/208599.html ]
Verse 2
   F           Bb       F   C        Csus4  C        Bb   F            Bb
e|-----------|------------|--------8-----|---8----------|------------|------------|
B|-----------|------------|--------------|-8---8--------|------------|------------|
G|-2~--------|------------|----------7b9_________9r7-5--|------------|------------|
D|-3~--------|------------|--------------|--------------|-3~---------|------------|
A|-----------|------------|--------------|--------------|------------|------------|
E|-----------|------------|--------------|--------------|------------|------------|

  C        Csus4 C           B5   Bb         C/Bb       Am          D
e|-------------|----------------|----------|----------|-----------|-----------5-|
B|-5-----------|-6---5---3---1--|----------|----------|-----------|----------6--|
G|-5-----------|----------------|-3--------|-5--------|-----------|---7-----7---|
D|---------3/5-|---5---3---2----|-3--------|----------|-5---------|-7-------rake|
A|-------------|----------------|----------|--------3-|-----------|-------------|
E|-------------|----------------|----------|----------|-----------|-------------|

   Gm            G           C         C6
e|-8-6-5-------|-----------|---------|-4--------|
B|-------6-----|-----------|-5-------|-5--------|
G|-------------|-----------|-5-------|-5--------|
D|-------------|-----------|---------|----------|
A|-------------|-----------|---------|----------|
E|-------------|-----------|---------|----------|


  Final Part
   F                       Gm             C          F           
e|-----------|-----------|-------8/10\8-|----------|-----------|------------|
B|-----------|-----------|--8----8/10\8-|--------8-|-6---------|------------|
G|-5---------|--------5/7|-(7)----------|--------7-|-5---------|--------5/7-|
D|-----------|-----------|--------------|----------|-----------|---5-7------|
A|-----------|-----------|--------------|----------|-----------|------------|
E|-----------|-----------|--------------|----------|-----------|------------|

  Gm                C            F                              Gm          C
e|---------8/10\8-|-8----------|-----------|------------------|-----------|------6-5---|
B|--8------8/10\8-|-8----------|-----------|--------------6/8-|-6---------|------6-6-6-|
G|-(7)------------|------------|-----------|--------------5/7-|-5---------|----------5-|
D|----------------|------------|-----------|--7\5-3-5/7~------|-----------|------------|
A|----------------|------------|-----------|------------------|-----------|------------|
E|----------------|------------|-----------|------------------|-----------|------------|


   C#maj7                           Gm           C                 F                   Bb
e|----------------|-8-9-11-9-8----|------------|-----------------|-8-10-8------------|--------|
B|----------------|------------11-|-8----------|-11p8---10p8---8-|--------10-8-6-----|-6------|
G|----------------|---------------|-7----------|------7------7---|---------------7-5-|--------|
D|----------------|---------------|-8----------|-----------------|-------------------|--------|
A|----------------|---------------|------------|-----------------|-------------------|--------|
E|----------------|---------------|------------|-----------------|-------------------|--------|


Ending
   F
e|-----------|-----------|--------------|---------|
B|--------6--|-6---------|--------------|---------|
G|-----------|-------5/7-|-5--------3p2-|---------|
D|-----------|-----------|--------3-----|-3-------|
A|-----------|-----------|------3-------|---------|
E|-----------|-----------|--------------|---------|




Key

| /  slide up
| \  slide down
| h  hammer-on
| p  pull-off
| ~  vibrato
| +  harmonic
| x  Mute note
Related for Santa Lucia tab
Santa Lucia chords by Miguel Rios