Song name
# A B C D E F G H I J K L M N O P Q R S T U V W X Y Z

Miike Snow - Song For No One tab

I think this is right. This is my first tab so I hope it's good

e|17-15-17-15-17-15-17-15-12-15-12------------------|
B|--------------------------------------------------|
G|--------------------------------------------------|
D|--------------------------------------------------|
A|--------------------------------------------------|
E|--------------------------------------------------|

e|12-10-12-10-12-10-12-10-8-10-8--------------------|
B|--------------------------------------------------|
G|--------------------------------------------------|
D|--------------------------------------------------|
A|--------------------------------------------------|
E|--------------------------------------------------|

e|5-3-5-3-5-3-5-3-5-8-12----------------------------|
B|--------------------------------------------------|
G|--------------------------------------------------|
D|--------------------------------------------------|
A|--------------------------------------------------|
E|--------------------------------------------------|

e|12-10-12-10-12-10-12-10-8-10-8--------------------|
B|--------------------------------------------------|
G|--------------------------------------------------|
D|--------------------------------------------------|
A|--------------------------------------------------|
E|--------------------------------------------------|
Tap to rate this tab
# A B C D E F G H I J K L M N O P Q R S T U V W X Y Z