Song name
# A B C D E F G H I J K L M N O P Q R S T U V W X Y Z

Miike Snow - Silvia tab

Tabbed by: tuna69
Tuning:D# A D G B e

Note: This is weird tuning, but more accurate to the song. If you wish to not change 
tuning, please view my other version.

Intro (x2)
Let the initial chord ring while you repeat the low notes.

F#m
e |--------------|
B |--------------|
G |--------------|
D |--5-----------|
A |--5-----------|
D#|--4--4--4--4--|

A
e |--------------|
B |--------------|
G |--3-----------|
D |--3-----------|
A |--1--1--1--1--|
D#|--------------|

D
e |--------------------------|
B |--------------------------|
G |--------------------------|
D |--1-----------------------|
A |--1-----------------------|
D#|--0--0--0--0--0--0--0--0--|

F#m        A            D
Reach the city steps tonight.
F#m    A            D
Following the power lines.
F#m    A      D
Met a man barside.
F#m     A         D
With eclipses for eyes.
F#m                             A
And you tell yourself you won't let them touch.
      D
Did I say too much? Did I say enough?
        F#m   A   D
I don't know, Sylvia.
        F#m   A   D
I don't know, Sylvia.

Circle round the room still.
Often breaking my will.
Know I can't have you here.
Someone else on your skin.
And it's all my fault for not getting off.
So you made it start. Can you make it stop?
You don't know, Sylvia.
You don't know, Sylvia.

Damn.
Damn.

Reach the city steps tonight.
Following the power lines.
And your skin is so white
Underneath the black night.
And your voice cries out for the Coup de grace.
When the lights go out, will there be a trace
That I love, Silvia?
That I loved, Silvia?
That I loved, Silvia?
Tap to rate this tab
 
# A B C D E F G H I J K L M N O P Q R S T U V W X Y Z