Song name
# A B C D E F G H I J K L M N O P Q R S T U V W X Y Z

Miike Snow - Animal tab

This Tab is the remix done by Fake Blood
and i need a drum tab for this if someone
will make it.
any problems, 
contact me:mikethecracker@hotmail.com

Guitar I:Rythm(EADGBe) 
Guitar II:Rythm(EADGBe)
Guitar III:Lead(DGDGGG)
Guitar IV:Lead(EADGBe)
Guitar V:Lead(EADGBe)
RYTHM:
e|-------------------------------------------|
B|-------------------------1--1--1--1--1--1--|
G|-------------2--2--2--2--------------------|
D|-2--2--2--2--------------------------------|
A|-------------0--0--0--0--3--3--3--3--3--3--|
E|-0--0--0--0--------------------------------|x4
//
guitar I
guitar II  
\\
e|-------------------------------------------|
B|-5--5--5--5--10--10-10-10--10--10--10--10--|
G|-5--5--5--5--10--10-10-10--9--9--9--9---9--|
D|-------------------------------------------|
A|-------------------------------------------|
E|-------------------------------------------|x4
Guitar I and Guitar II keep repeating this through
the whole song but after x4 Guitar III 
plays this: 

Guitar III
G|-----------------------------------|
G|--0p7~-5~-4~-2~-2~-0-2~-4~-0-0--6\1|
G|-----------------------------------|
D|-----------------------------------|
G|-----------------------------------|
D|-----------------------------------|

G|-----------------------------------|
G|-----------------------------------|
G|-----------------------------------|
D|-----------------------------------|
G|----------------------2-2-2--2-2-2-|
D|-0-7-5-4-2-2-0-2-4-0-0---2--0---2--|x3

G|----------------------------------|
G|----------------------------------|
G|----------------------------------|
D|----------------------------------|
G|----------------------2-2-2--2-2-2|
D|-0-7-5-4-2-2-0-2-4-0-0---2--0---2-|x3
Singer hums to this and claps 
to this part.
//
Guitar III
Guitar IV
\\
e|----------------------------------|
B|----------------------------------|
G|----------------------2-2-2--2-2-2|
D|-0-7-5-4-2-2-0-0-4-0-0---2--0---2-|
A|----------------------------------|
E|----------------------------------|x3

Guitar I and II play Rythm while Guitar
III and IV Plays this:

G|-----------------------------|
G|-0p7~-5~-4~-2~-2~-0-2~-4~-0-0|
G|-----------------------------|
D|-----------------------------|
G|-----------------------------|
D|-----------------------------|

G|------------------------------|
G|------------------------------|
G|------------------------------|
D|------------------------------|
G|------------------2-2-2--2-2-2|
D|-0-7-5-4-2-2-4-0-0---2--0---2-|x3
//
Guitar III
Guitar IV
\\
e|--------|
B|--------|
G|--------|
D|-2/7-7--|
A|-2/7-7-7|
E|--------|x16

G|------------------------------------|
G|------------------------------------|
G|------------------------------------|
D|------------------------------------|
G|----------------------2-2-2---2-2-2-|
D|-0-7-5-4-2-2-0-2-4-0-0---2--0----2--|x3
//
Guitar III
Guitar IV
\\
e|-----------|
B|-----------|
G|-----------|
D|-7/14-14---|
A|-7/14-14-14|
E|-----------|x16

G|----------------------------------|
G|----------------------------------|
G|----------------------------------|
D|----------------------------------|
G|----------------------2-2-2--2-2-2|
D|-0-7-5-4-2-2-2-0-2-4-0---2--0---2-|x3   Guitar IV
//                                     e|-----------|
Guitar III-----------------------------B|-----------|
Guitar V(singer)-----------------------G|-7/14-14---|
\\                                     D|-7/14-14-14|
|----------------------------------|   A|-----------|
|----------------------------------|   E|-----------|
|----------------------2-2-2--2-2-2|
|-0-7-5-4-2-2-2-0-2-4-0---2--0---2-|
|----------------------------------|
|----------------------------------|x3

The Drums and Rythm guitars the end.
Tap to rate this tab
 
# A B C D E F G H I J K L M N O P Q R S T U V W X Y Z