Song name
# A B C D E F G H I J K L M N O P Q R S T U V W X Y Z

Mika Miko - Turkey Sandwich tab

Artist: Mika Miko
Song: Turkey Sandwich
Album: We Be Xuxa
Tabbed by: DPL

e|---------------------|
B|---------------------|
G|---------------------|
D|--6-666-5-3-333-5----|  Part A
A|--4-444-3-1-111-3----|
E|---------------------|


e|---------------------|
B|---------------------|
G|---------------------|  Part B
D|---------------------|
A|--7-777-6-4-444-6----|
E|--5-555-4-2-222-4----|


e|----------------------------------------------------------------|
B|----------------------------------------------------------------|
G|----------------------------------------------------------------|  Part C
D|--6-666-5-3-333-5-6-666-5-3-333-5-6-666-5-3-333-5-6-666-5-3-4-5-|
A|--4-444-3-1-111-3-4-444-3-1-111-3-4-444-3-1-111-3-4-444-3-1-2-3-|
E|----------------------------------------------------------------|


e|--------------------|
B|--------------------|
G|--------------------|  Part D
D|--6-666-5-3-4-5-----|
A|--4-444-3-1-2-3-----|
E|--------------------|


e|-----------------------|
B|-----------------------|
G|-----------------------|  Part E
D|--------4-5-555-4------|
A|--5-555-2-3-333-2------|
E|--3-333----------------|


e|-----|
B|-----|
G|-----| Part F
D|-----|
A|--5--|
E|--3--|


Part A x4
Part B x4
Part A x4
Part B x4
Part C x1
Part D x4
Part E x12
Part F x1
Tap to rate this tab
 
# A B C D E F G H I J K L M N O P Q R S T U V W X Y Z