Song name
# A B C D E F G H I J K L M N O P Q R S T U V W X Y Z

Mika Miko - With My Ducks tab

-------------------------------------------------------------------------------
			     WITH MY DUCKS - Mika Miko
-------------------------------------------------------------------------------
Tabbed by: DPL
Email: nizibian@gmail.com

Tuning: Standard (EADGBe)

The timing of the guitar in this song is really weird, especially for the intro
and the solo (part 4) so listen to the track while you are trying to get it down.


Intro
e|---------------------------------------------------------------------------|
B|-2---------------22-222-22-2-5--2-12--12-5br-------------------------------|
G|---------------------------------------------------------------------------|
D|---------------------------------------------------------------------------|
A|---------------------------------------------------------------------------|
E|---------------------------------------------------------------------------|

e|-------------------5-4-2--2-5-2-4-22--------------------5-4-5--4-55-4-5----|
B|-22524br-22524br-2-------------------5-2-4-2--5-2-4-2----------------------|
G|---------------------------------------------------------------------------|
D|---------------------------------------------------------------------------|
A|---------------------------------------------------------------------------|
E|---------------------------------------------------------------------------|

e|------------------5242-25-2-4-2-22-----------------------------------------|
B|-22524br-2-2524-2------------------524-2--25-2-4-2-22----------------------|
G|---------------------------------------------------------------------------|
D|---------------------------------------------------------------------------|
A|---------------------------------------------------------------------------|
E|---------------------------------------------------------------------------|

e|-55445-x-4-x-5--45---------------------------------------------------------|
B|-55445-x-4-x-5--45---------------------------------------------------------|
G|---------------------------------------------------------------------------|
D|---------------------------------------------------------------------------|
A|---------------------------------------------------------------------------|
E|---------------------------------------------------------------------------|


Part 1
e|---------------------------------------------------------------------------|
B|---------------------------------------------------------------------------|
G|---------------------------------------------------------------------------|
D|-6-66-66-66--45------------------------------------------------------------|
A|-4-44-44-44--23------------------------------------------------------------|
E|---------------------------------------------------------------------------|


Part 2
e|-----------------------------------------------------------------------------|
B|-----------------------------------------------------------------------------|
G|-----------------------------------------------------------------------------|
D|-6-666666-6-666666-4-444444-4-444444-6-x-9-999-6-x-9-999-6-x-9-999-6-x-9-999-|
A|-4-444444-4-444444-2-222222-2-222222-4-x-7-777-4-x-7-777-4-x-7-777-4-x-7-777-|
E|-----------------------------------------------------------------------------|

e|---------------------------------------------------------------------------|
B|---------------------------------------------------------------------------|
G|---------------------------------------------------------------------------|
D|-6-x-9-999-6-x-999-6-x-999-6-x-999-----------------------------------------|
A|-4-x-7-777-4-x-777-4-x-777-4-x-777-----------------------------------------|
E|---------------------------------------------------------------------------|



Part 3
e|---------------------------------------------------------------------------|
B|---------------------------------------------------------------------------|
G|---------------------------------------------------------------------------|
D|-6-666666-6-666666-9-999999-11-111111111111--------------------------------|
A|-4-444444-4-444444-7-777777--9--9-9-9-9-9-9--------------------------------|
E|---------------------------------------------------------------------------|



Part 4
e|-----5-----------------/9\-------------------------/9\-------------|
B|-----7brp5---5-7---5-7-----7-9--57\-757br--77brp5------75----------|
G|----------6-6----6-------------------------------6-------6---------|
D|-------------------------------------------------------------------|
A|-------------------------------------------------------------------|
E|-------------------------------------------------------------------|


End
e|---------------------------------------------------------------------------|
B|---------------------------------------------------------------------------|
G|---------------------------------------------------------------------------|
D|-6-66-66-66--456-----------------------------------------------------------|
A|-4-44-44-44--234-----------------------------------------------------------|
E|---------------------------------------------------------------------------|


Intro
Part 1 x6
Part 2
Part 1 x4
Part 3 x2
Part 1 x4
Part 4
Part 1 x3
End

************************************

| /   slide up
| \   slide down
| h   hammer-on
| p   pull-off
| ~   vibrato
| +   harmonic
| x   Mute note
| b   Bend
| pb  Pre-bend
| br  Bend release
| pbr Pre-bend release
| brb Bend release bend

************************************
Tap to rate this tab
 
# A B C D E F G H I J K L M N O P Q R S T U V W X Y Z