Song name
# A B C D E F G H I J K L M N O P Q R S T U V W X Y Z

Mika Miko - Wild Bore tab

-------------------------------------------------------------------------------
			     WILD BORE - Mika Miko
-------------------------------------------------------------------------------
Tabbed by: DPL
Email: nizibian@gmail.com

Tuning: Standard (EADGBe)

Verse
e|---------------------------------------------------------------------------|
B|---------------------------------------------------------------------------|
G|---------------------------------------------------------------------------|
D|-----------------8-1212-1212-1212121212\\----------------------------------|
A|-5-88-88-888-5-8-6-1010-1010-1010101010\\----------------------------------|
E|-3-66-66-666-3-6-----------------------------------------------------------|


Chorus
e|---------------------------------------------------------------------------|
B|---------------------------------------------------------------------------|
G|---------------------------------------------------------------------------|
D|-8-8-8887-77-777---------353-----8-8-8887-77-777---------------------------|
A|-6-6-6665-55-555-----3-5-----5-3-6-6-6665-55-555---------------------------|
E|-----------------3-5-----------------------------3-3-3-3-3-3-3-3-----------|


e|---------------------------------------------------------------------------|
B|-------------------------686-----------------------------------------------|
G|---------------------5-7-----7-5-------------------------------------------|
D|-8-8-8887-77-777-5-7-------------8-8-8887-77-777---------------------------|
A|-6-6-6665-55-555-----------------6-6-6665-55-555---------------------------|
E|-------------------------------------------------3-3-3-3-3-3-3-3-----------|


Bridge 1
e|---------------------------------------------------------------------------|
B|---------------------------------------------------------------------------|
G|---------------------------------------------------------------------------|
D|------------5--------------------------------------------------------------|
A|---------6-x-5----345----8910----------------------------------------------|
E|-3-3-6-6------6-3-----33-----10\\------------------------------------------|

Bridge 1a
e|---------------------------------------------------------------------------|
B|---------------------------------------------------------------------------|
G|---------------------------------------------------------------------------|
D|------------5--------------------------------------------------------------|
A|---------6-x-5-------------------------------------------------------------|
E|-3-3-6-6------6-3--///15-15-15---------------------------------------------|



Ending
e|---------------------------------------------------------------------------|
B|---------------------------------------------------------------------------|
G|---------------------------------------------------------------------------|
D|------------5--------------------------------------------------------------|
A|---------6-x-5--5----------------------------------------------------------|
E|-3-3-6-6------6-3----------------------------------------------------------|


Verse x4
Chorus
Bridge 1 x3
Bridge 1a
Verse x4
Chorus
Ending

************************************

| /   slide up
| \   slide down
| h   hammer-on
| p   pull-off
| ~   vibrato
| +   harmonic
| x   Mute note
| b   Bend
| pb  Pre-bend
| br  Bend release
| pbr Pre-bend release
| brb Bend release bend

************************************
Tap to rate this tab
 
# A B C D E F G H I J K L M N O P Q R S T U V W X Y Z