Song name
# A B C D E F G H I J K L M N O P Q R S T U V W X Y Z

Mika Miko - On The Rise tab

-------------------------------------------------------------------------------
			     On the Rise - Mika Miko
-------------------------------------------------------------------------------
Tabbed by: DPL
Email: nizibian@gmail.com

Tuning: Standard (EADGBe)

Intro:
e|---------------------------------------------------------------------------|
B|---------------------------------------------------------------------------|
G|---------------------------------------------------------------------------|
D|---9-9-9999----------------------------------------------------------------|
A|---9-9-9999----------------------------------------------------------------|
E|---7-7-7777----------------------------------------------------------------|

Verse:
e|---------------------------------------------------------------------------|
B|---------------------------------------------------------------------------|
G|---6-6------9--9-9--9-9-9--------------------------------------------------|
D|---7-7-999-10-1010-101010--------------------------------------------------|
A|---7-7-999-10-1010-101010--------------------------------------------------|
E|---5-5-777--8--8-8--8-8-8--------------------------------------------------|

Chorus:
e|---------------------------------------------------------------------------|
B|---------------------------------------------------------------------------|
G|---------------------------------------------------------------------------|
D|---5-5-555-8-88-888--------------------------------------------------------|
A|---5-5-555-8-88-888--------------------------------------------------------|
E|---3-3-333-6-66-666--------------------------------------------------------|

Verse variation:
e|---------------------------------------------------------------------------|
B|---------------------------------------------------------------------------|
G|---6-6-------------9-9-9---------------------------------------------------|
D|---7-7-----rest---101010---------------------------------------------------|
A|---7-7------------101010---------------------------------------------------|
E|---5-5-------------8-8-8---------------------------------------------------|

End:
e|---------------------------------------------------------------------------|
B|---------------------------------------------------------------------------|
G|---6-6------9--------------------------------------------------------------|
D|---7-7-999-10--------------------------------------------------------------|
A|---7-7-999-10--------------------------------------------------------------|
E|---5-5-777--8--------------------------------------------------------------|


Song order:

Intro x4
Verse x8
Chorus x4
Verse x8
Chorus x4
Verse variation x4
Verse x4
Chorus x8
End x1

************************************

| /   slide up
| \   slide down
| h   hammer-on
| p   pull-off
| ~   vibrato
| +   harmonic
| x   Mute note
| b   Bend
| pb  Pre-bend
| br  Bend release
| pbr Pre-bend release
| brb Bend release bend

************************************
Tap to rate this tab
 
# A B C D E F G H I J K L M N O P Q R S T U V W X Y Z