Song name
# A B C D E F G H I J K L M N O P Q R S T U V W X Y Z

Mika - Over My Shoulder tab

Help us improve GuitareTab! Take a short survey!
Highlighted       Show chord diagrams
---------------------------
- Mika ~ Over My Shoulder -
-    Tabbed by Freddy     -
---------------------------


Intro: (It's not exactly the Piano but it fits to the theme) 

e|-1-1-----1--|-3-3----3-3--|
H|-3---3-----3|-3---3--5---5|
G|-2-----2----|-3------5----|
D|------------|-------------|
A|-0----------|--------3----|
E|------------|-3-----------|

 |-1-1-----1--|-3-3---0-0--|
 |-3---3-----3|-3---3-2---2|
 |-2-----2----|-3-----0----|
 |------------|------------|
 |-0----------|-------0----|
 |------------|-3----------|

dm      gm
Over my shoulder.
Bb      F   A7
Running away.
dm             gm
Feels like I'm falling.
Bb        F   A7  
Losing my day.

dm
Cold!
gm
And dry!
Bb
Cold!
F     A7
And dry.

Play the rest of the song using this chord pattern.
Related for Over My Shoulder tab