Song name
# A B C D E F G H I J K L M N O P Q R S T U V W X Y Z

Mika - Happy Ending tab

Mika
Happy ending
enjoy


e---------------------------------------------------------------|
B-------------2----4----6----4----2----4------------------------|
G---------1-----------------------------------------------------|
D---------------------------------------------------------------|
A----4----------------------------------------------------------|
E---------------------------------------------------------------|

e-----------------------------------------------------------------|
B-------------2----4----6---------4------2------------------------|
G---------1-------------------------------------------------------|
D-----------------------------------------------------------------|
A-----------------------------------------------------------------|
E------4----------------------------------------------------------|

e---------------------------------------------------------------|
B-------------2----4----6----4----2----4------------------------|
G---------1-----------------------------------------------------|
D---------------------------------------------------------------|
A---------------------------------------------------------------|
E------6--------------------------------------------------------|

e---------------------------------------------------------------|
B-------------2----4----6--------4----2-------------------------|
G---------1-----------------------------------------------------|
D---------------------------------------------------------------|
A---------------------------------------------------------------|
E-----2---------------------------------------------------------|
Tap to rate this tab
# A B C D E F G H I J K L M N O P Q R S T U V W X Y Z