Song name
# A B C D E F G H I J K L M N O P Q R S T U V W X Y Z

Mika - Any Other World tab


this song is played with a 


CAPO ON THIRD FRET

the song is best played 

C                             Em

|----------------------------|----------------------------|
|----------------------------|----------------------------|
|----------------------------|----------------------------|
|-3-----3-----3-----3--------|-2-----2-----2-----2--------|
|----2-----2-----2-----2-----|----2-----2-----2-----2-----|
|----------------------------|----------------------------|

Am                            Am

|----------------------------|----------------------------|
|----------------------------|----------------------------|
|----------------------------|----------------------------|
|-2-----2-----2-----2--------|-2-----2-----2-----2--------|
|----0-----0-----0-----0-----|----0-----0-----0-----0-----|
|----------------------------|----------------------------|

F                             C

|----------------------------|----------------------------|
|----------------------------|----------------------------|
|----------------------------|----------------------------|
|----------------------------|-2-----2-----2-----2--------|
|-3-----3-----3-----3--------|----3-----3-----3-----3-----|
|----1-----1-----1-----1-----|----------------------------|

G                             G

|----------------------------|----------------------------|
|----------------------------|----------------------------|
|----------------------------|----------------------------|
|-0-----0-----0-----0--------|-0-----0-----0-----0--------|
|----2-----2-----2-----2-----|----2-----2-----2-----2-----|
|----------------------------|----------------------------|


Matthew McLean

mac.92@live.co.uk
Tap to rate this tab
# A B C D E F G H I J K L M N O P Q R S T U V W X Y Z